ISO-10303-21;
HEADER;
FILE_DESCRIPTION (( 'STEP AP203' ),
    '1' );
FILE_NAME ('965207.step',
    '2021-12-01T07:27:29',
    ( '' ),
    ( '' ),
    'SwSTEP 2.0',
    'SolidWorks 2019',
    '' );
FILE_SCHEMA (( 'CONFIG_CONTROL_DESIGN' ));
ENDSEC;

DATA;
#1 = PERSON_AND_ORGANIZATION_ROLE ( 'classification_officer' ) ;
#2 = DIRECTION ( 'NONE',  ( 0.0000000000000000000, 1.000000000000000000, 0.0000000000000000000 ) ) ;
#3 = APPROVAL_ROLE ( '' ) ;
#4 = DIRECTION ( 'NONE',  ( -3.491481338843133355E-15, 1.224646799147353207E-16, -1.000000000000000000 ) ) ;
#5 = FACE_OUTER_BOUND ( 'NONE', #136, .T. ) ;
#6 = CONICAL_SURFACE ( 'NONE', #84, 1.200000000000003286, 0.7853981633974453924 ) ;
#7 = ADVANCED_FACE ( 'NONE', ( #79 ), #103, .F. ) ;
#8 = DIRECTION ( 'NONE',  ( -3.491481338843133355E-15, 1.224646799147353207E-16, -1.000000000000000000 ) ) ;
#9 = CARTESIAN_POINT ( 'NONE',  ( 1.047444401652940007E-14, -3.673940397442059868E-16, 3.000000000000000000 ) ) ;
#10 = LOCAL_TIME ( 8, 27, 29.00000000000000000, #195 ) ;
#11 = DIRECTION ( 'NONE',  ( 4.275831445896958607E-31, 1.000000000000000000, 1.224646799147352961E-16 ) ) ;
#12 = DIRECTION ( 'NONE',  ( 3.491481338843133355E-15, -1.224646799147353207E-16, 1.000000000000000000 ) ) ;
#13 = CONICAL_SURFACE ( 'NONE', #125, 0.2249999999999990064, 0.5235987755982925984 ) ;
#14 = APPLICATION_PROTOCOL_DEFINITION ( 'international standard', 'config_control_design', 1994, #201 ) ;
#15 = ADVANCED_FACE ( 'NONE', ( #135, #250 ), #183, .T. ) ;
#16 = DIRECTION ( 'NONE',  ( 0.0000000000000000000, 1.000000000000000000, 0.0000000000000000000 ) ) ;
#17 = APPROVAL ( #147, 'UNSPECIFIED' ) ;
#18 = COORDINATED_UNIVERSAL_TIME_OFFSET ( 1, 0, .AHEAD. ) ;
#19 = AXIS2_PLACEMENT_3D ( 'NONE', #52, #12, #273 ) ;
#20 = ORIENTED_EDGE ( 'NONE', *, *, #232, .T. ) ;
#21 =( NAMED_UNIT ( * ) SI_UNIT ( $, .STERADIAN. ) SOLID_ANGLE_UNIT ( ) );
#22 = EDGE_CURVE ( 'NONE', #81, #81, #120, .T. ) ;
#23 = EDGE_LOOP ( 'NONE', ( #173 ) ) ;
#24 = FACE_OUTER_BOUND ( 'NONE', #44, .T. ) ;
#25 = EDGE_LOOP ( 'NONE', ( #239 ) ) ;
#26 = APPROVAL_DATE_TIME ( #28, #145 ) ;
#27 = LOCAL_TIME ( 8, 27, 29.00000000000000000, #258 ) ;
#28 = DATE_AND_TIME ( #111, #10 ) ;
#29 = CC_DESIGN_PERSON_AND_ORGANIZATION_ASSIGNMENT ( #213, #1, ( #106 ) ) ;
#30 = FACE_BOUND ( 'NONE', #224, .T. ) ;
#31 = ADVANCED_FACE ( 'NONE', ( #24 ), #153, .T. ) ;
#32 = CONICAL_SURFACE ( 'NONE', #19, 1.499999999999996891, 0.1745329251994260089 ) ;
#33 = DIRECTION ( 'NONE',  ( 0.0000000000000000000, 1.000000000000000000, 0.0000000000000000000 ) ) ;
#34 = VERTEX_POINT ( 'NONE', #196 ) ;
#35 =( LENGTH_UNIT ( ) NAMED_UNIT ( * ) SI_UNIT ( .MILLI., .METRE. ) );
#36 = EDGE_LOOP ( 'NONE', ( #215 ) ) ;
#37 = DATE_TIME_ROLE ( 'creation_date' ) ;
#38 =( NAMED_UNIT ( * ) PLANE_ANGLE_UNIT ( ) SI_UNIT ( $, .RADIAN. ) );
#39 =( GEOMETRIC_REPRESENTATION_CONTEXT ( 3 ) GLOBAL_UNCERTAINTY_ASSIGNED_CONTEXT ( ( #220 ) ) GLOBAL_UNIT_ASSIGNED_CONTEXT ( ( #35, #38, #21 ) ) REPRESENTATION_CONTEXT ( 'NONE', 'WORKASPACE' ) );
#40 = ORIENTED_EDGE ( 'NONE', *, *, #248, .T. ) ;
#41 = EDGE_LOOP ( 'NONE', ( #148 ) ) ;
#42 = COORDINATED_UNIVERSAL_TIME_OFFSET ( 1, 0, .AHEAD. ) ;
#43 = ADVANCED_FACE ( 'NONE', ( #262 ), #266, .F. ) ;
#44 = EDGE_LOOP ( 'NONE', ( #177 ) ) ;
#45 = APPROVAL_DATE_TIME ( #154, #127 ) ;
#46 = CIRCLE ( 'NONE', #161, 0.2249999999999990064 ) ;
#47 = FACE_BOUND ( 'NONE', #263, .T. ) ;
#48 = MANIFOLD_SOLID_BREP ( 'Corps-Déplacer/Copier1[2]', #157 ) ;
#49 = ORIENTED_EDGE ( 'NONE', *, *, #101, .T. ) ;
#50 = APPLICATION_CONTEXT ( 'configuration controlled 3d designs of mechanical parts and assemblies' ) ;
#51 = LOCAL_TIME ( 8, 27, 29.00000000000000000, #18 ) ;
#52 = CARTESIAN_POINT ( 'NONE',  ( 4.331483443299614047E-14, -1.519279875674269719E-15, 12.40586164706470029 ) ) ;
#53 = DIRECTION ( 'NONE',  ( -3.491481338843133355E-15, 1.224646799147353207E-16, -1.000000000000000000 ) ) ;
#54 = CC_DESIGN_APPROVAL ( #127, ( #106 ) ) ;
#55 = FACE_OUTER_BOUND ( 'NONE', #194, .T. ) ;
#56 = EDGE_CURVE ( 'NONE', #34, #34, #46, .T. ) ;
#57 = PRODUCT_DEFINITION_SHAPE ( 'NONE', 'NONE',  #249 ) ;
#58 = CARTESIAN_POINT ( 'NONE',  ( 1.326762908760390423E-13, 1.199999999999998845, 38.00000000000000000 ) ) ;
#59 = CARTESIAN_POINT ( 'NONE',  ( 1.745740669421566678E-14, -4.336808689942017736E-16, 5.000000000000000000 ) ) ;
#60 = AXIS2_PLACEMENT_3D ( 'NONE', #189, #274, #131 ) ;
#61 = VERTEX_POINT ( 'NONE', #58 ) ;
#62 = EDGE_LOOP ( 'NONE', ( #20 ) ) ;
#63 = CALENDAR_DATE ( 2021, 1, 12 ) ;
#64 = PERSON_AND_ORGANIZATION ( #88, #259 ) ;
#65 = DIRECTION ( 'NONE',  ( 0.0000000000000000000, 1.000000000000000000, 0.0000000000000000000 ) ) ;
#66 = ADVANCED_FACE ( 'NONE', ( #244, #47 ), #6, .T. ) ;
#67 = DIRECTION ( 'NONE',  ( 0.0000000000000000000, 1.000000000000000000, 0.0000000000000000000 ) ) ;
#68 = ORIENTED_EDGE ( 'NONE', *, *, #101, .F. ) ;
#69 = DATE_TIME_ROLE ( 'classification_date' ) ;
#70 = SHAPE_DEFINITION_REPRESENTATION ( #57, #102 ) ;
#71 = CARTESIAN_POINT ( 'NONE',  ( -8.307823724442941069E-32, 2.913992298578513973E-33, -2.379455285072682871E-17 ) ) ;
#72 = DIRECTION ( 'NONE',  ( 3.491481338843133355E-15, -1.224646799147353207E-16, 1.000000000000000000 ) ) ;
#73 = AXIS2_PLACEMENT_3D ( 'NONE', #77, #252, #191 ) ;
#74 = CC_DESIGN_PERSON_AND_ORGANIZATION_ASSIGNMENT ( #210, #278, ( #249 ) ) ;
#75 = DIRECTION ( 'NONE',  ( -3.491481338843133355E-15, 1.224646799147353207E-16, -1.000000000000000000 ) ) ;
#76 = DIRECTION ( 'NONE',  ( 3.491481338843133355E-15, -1.224646799147353207E-16, 1.000000000000000000 ) ) ;
#77 = CARTESIAN_POINT ( 'NONE',  ( 1.047444401652940007E-14, -3.673940397442059868E-16, 3.000000000000000000 ) ) ;
#78 = FACE_OUTER_BOUND ( 'NONE', #217, .T. ) ;
#79 = FACE_OUTER_BOUND ( 'NONE', #25, .T. ) ;
#80 = FACE_OUTER_BOUND ( 'NONE', #110, .T. ) ;
#81 = VERTEX_POINT ( 'NONE', #276 ) ;
#82 = DIRECTION ( 'NONE',  ( 4.275831445896958607E-31, 1.000000000000000000, 1.224646799147353207E-16 ) ) ;
#83 = PERSON_AND_ORGANIZATION ( #88, #259 ) ;
#84 = AXIS2_PLACEMENT_3D ( 'NONE', #280, #8, #2 ) ;
#85 = CARTESIAN_POINT ( 'NONE',  ( 4.331483443299614047E-14, 1.499999999999995559, 12.40586164706470029 ) ) ;
#86 = EDGE_LOOP ( 'NONE', ( #40 ) ) ;
#87 = CALENDAR_DATE ( 2021, 1, 12 ) ;
#88 = PERSON ( 'UNSPECIFIED', 'UNSPECIFIED', 'UNSPECIFIED', ('UNSPECIFIED'), ('UNSPECIFIED'), ('UNSPECIFIED') ) ;
#89 = CALENDAR_DATE ( 2021, 1, 12 ) ;
#90 = CARTESIAN_POINT ( 'NONE',  ( 1.866998543791203065E-14, 0.2553844939755802734, 5.347296355333847728 ) ) ;
#91 = ORIENTED_EDGE ( 'NONE', *, *, #187, .F. ) ;
#92 = PERSON_AND_ORGANIZATION ( #88, #259 ) ;
#93 = AXIS2_PLACEMENT_3D ( 'NONE', #133, #123, #95 ) ;
#94 = ORIENTED_EDGE ( 'NONE', *, *, #187, .T. ) ;
#95 = DIRECTION ( 'NONE',  ( 4.275831445896958607E-31, 1.000000000000000000, 1.224646799147353207E-16 ) ) ;
#96 = DIRECTION ( 'NONE',  ( -3.491481338843133355E-15, 1.224646799147353207E-16, -1.000000000000000000 ) ) ;
#97 = CIRCLE ( 'NONE', #281, 1.500000000000003331 ) ;
#98 = CARTESIAN_POINT ( 'NONE',  ( 1.316288464743861212E-13, -4.616918432785521081E-15, 37.69999999999999574 ) ) ;
#99 = EDGE_CURVE ( 'NONE', #151, #151, #104, .T. ) ;
#100 = APPROVAL_PERSON_ORGANIZATION ( #240, #145, #152 ) ;
#101 = EDGE_CURVE ( 'NONE', #167, #167, #97, .T. ) ;
#102 = ADVANCED_BREP_SHAPE_REPRESENTATION ( '965207', ( #235, #48, #202 ), #39 ) ;
#103 = PLANE ( 'NONE',  #208 ) ;
#104 = CIRCLE ( 'NONE', #206, 0.2249999999999994227 ) ;
#105 = CIRCLE ( 'NONE', #253, 1.499999999999996891 ) ;
#106 = SECURITY_CLASSIFICATION ( '', '', #200 ) ;
#107 = FACE_OUTER_BOUND ( 'NONE', #115, .T. ) ;
#108 = DIRECTION ( 'NONE',  ( -3.491481338843133355E-15, 1.224646799147353207E-16, -1.000000000000000000 ) ) ;
#109 = CALENDAR_DATE ( 2021, 1, 12 ) ;
#110 = EDGE_LOOP ( 'NONE', ( #94 ) ) ;
#111 = CALENDAR_DATE ( 2021, 1, 12 ) ;
#112 = VERTEX_POINT ( 'NONE', #149 ) ;
#113 = EDGE_CURVE ( 'NONE', #190, #190, #269, .T. ) ;
#114 = DIRECTION ( 'NONE',  ( 3.491481338843133355E-15, -1.224646799147353207E-16, 1.000000000000000000 ) ) ;
#115 = EDGE_LOOP ( 'NONE', ( #150 ) ) ;
#116 = DATE_AND_TIME ( #89, #243 ) ;
#117 = CARTESIAN_POINT ( 'NONE',  ( 1.047444401652940007E-14, 1.687229755494579545E-33, 3.000000000000000000 ) ) ;
#118 = PERSON_AND_ORGANIZATION_ROLE ( 'creator' ) ;
#119 = COORDINATED_UNIVERSAL_TIME_OFFSET ( 1, 0, .AHEAD. ) ;
#120 = CIRCLE ( 'NONE', #137, 0.2249999999999997002 ) ;
#121 = DIRECTION ( 'NONE',  ( -3.491481338843133355E-15, 1.224646799147353207E-16, -1.000000000000000000 ) ) ;
#122 = ORIENTED_EDGE ( 'NONE', *, *, #22, .F. ) ;
#123 = DIRECTION ( 'NONE',  ( -3.491481338843133355E-15, 1.224646799147353207E-16, -1.000000000000000000 ) ) ;
#124 = FACE_OUTER_BOUND ( 'NONE', #261, .T. ) ;
#125 = AXIS2_PLACEMENT_3D ( 'NONE', #267, #72, #158 ) ;
#126 = FACE_BOUND ( 'NONE', #146, .T. ) ;
#127 = APPROVAL ( #264, 'UNSPECIFIED' ) ;
#128 = AXIS2_PLACEMENT_3D ( 'NONE', #117, #76, #218 ) ;
#129 = VERTEX_POINT ( 'NONE', #85 ) ;
#130 = ADVANCED_FACE ( 'NONE', ( #30, #80 ), #32, .T. ) ;
#131 = DIRECTION ( 'NONE',  ( -4.275831445896958607E-31, -1.000000000000000000, -1.224646799147353207E-16 ) ) ;
#132 = DIRECTION ( 'NONE',  ( 0.0000000000000000000, 0.0000000000000000000, 1.000000000000000000 ) ) ;
#133 = CARTESIAN_POINT ( 'NONE',  ( 0.0000000000000000000, 0.0000000000000000000, 0.0000000000000000000 ) ) ;
#134 = ORIENTED_EDGE ( 'NONE', *, *, #99, .T. ) ;
#135 = FACE_OUTER_BOUND ( 'NONE', #36, .T. ) ;
#136 = EDGE_LOOP ( 'NONE', ( #212 ) ) ;
#137 = AXIS2_PLACEMENT_3D ( 'NONE', #203, #96, #156 ) ;
#138 = DIRECTION ( 'NONE',  ( -3.491481338843133355E-15, 1.224646799147353207E-16, -1.000000000000000000 ) ) ;
#139 = CARTESIAN_POINT ( 'NONE',  ( -1.661564744888588214E-31, 5.827984597157027946E-33, -4.758910570145365742E-17 ) ) ;
#140 = FACE_OUTER_BOUND ( 'NONE', #86, .T. ) ;
#141 = VERTEX_POINT ( 'NONE', #171 ) ;
#142 = PLANE ( 'NONE',  #60 ) ;
#143 = AXIS2_PLACEMENT_3D ( 'NONE', #139, #204, #11 ) ;
#144 = PERSON_AND_ORGANIZATION ( #88, #259 ) ;
#145 = APPROVAL ( #174, 'UNSPECIFIED' ) ;
#146 = EDGE_LOOP ( 'NONE', ( #236 ) ) ;
#147 = APPROVAL_STATUS ( 'not_yet_approved' ) ;
#148 = ORIENTED_EDGE ( 'NONE', *, *, #56, .F. ) ;
#149 = CARTESIAN_POINT ( 'NONE',  ( 1.047444401652940007E-14, 0.2249999999999990341, 3.000000000000000000 ) ) ;
#150 = ORIENTED_EDGE ( 'NONE', *, *, #113, .T. ) ;
#151 = VERTEX_POINT ( 'NONE', #193 ) ;
#152 = APPROVAL_ROLE ( '' ) ;
#153 = PLANE ( 'NONE',  #128 ) ;
#154 = DATE_AND_TIME ( #87, #282 ) ;
#155 = DIRECTION ( 'NONE',  ( -3.491481338843133355E-15, 1.224646799147353207E-16, -1.000000000000000000 ) ) ;
#156 = DIRECTION ( 'NONE',  ( 0.0000000000000000000, 1.000000000000000000, 0.0000000000000000000 ) ) ;
#157 = CLOSED_SHELL ( 'NONE', ( #43, #223, #181, #31 ) ) ;
#158 = DIRECTION ( 'NONE',  ( -4.279844320860543288E-31, -1.000000000000000000, -1.204669080539454767E-16 ) ) ;
#159 = ADVANCED_FACE ( 'NONE', ( #55, #107 ), #242, .F. ) ;
#160 = CARTESIAN_POINT ( 'NONE',  ( 0.0000000000000000000, 0.0000000000000000000, 0.0000000000000000000 ) ) ;
#161 = AXIS2_PLACEMENT_3D ( 'NONE', #182, #4, #197 ) ;
#162 = ADVANCED_FACE ( 'NONE', ( #78 ), #142, .F. ) ;
#163 = DIRECTION ( 'NONE',  ( 4.401536981533690563E-31, 1.000000000000000000, 1.224646799147353207E-16 ) ) ;
#164 = DIRECTION ( 'NONE',  ( 4.275831445896959482E-31, 1.000000000000000000, 1.224646799147353207E-16 ) ) ;
#165 = DIRECTION ( 'NONE',  ( -3.491481338843133355E-15, 1.224646799147353207E-16, -1.000000000000000000 ) ) ;
#166 = PRODUCT ( '965207', '965207', '', ( #188 ) ) ;
#167 = VERTEX_POINT ( 'NONE', #207 ) ;
#168 = CC_DESIGN_PERSON_AND_ORGANIZATION_ASSIGNMENT ( #64, #118, ( #186 ) ) ;
#169 = PERSON_AND_ORGANIZATION_ROLE ( 'design_owner' ) ;
#170 = CLOSED_SHELL ( 'NONE', ( #162, #15, #159, #130, #228, #66, #7 ) ) ;
#171 = CARTESIAN_POINT ( 'NONE',  ( -9.463679131915806782E-32, 0.1672649730810372715, -2.710505431213761085E-17 ) ) ;
#172 = CARTESIAN_POINT ( 'NONE',  ( 1.326762908760390423E-13, 8.998558695971103225E-33, 38.00000000000000000 ) ) ;
#173 = ORIENTED_EDGE ( 'NONE', *, *, #22, .T. ) ;
#174 = APPROVAL_STATUS ( 'not_yet_approved' ) ;
#175 = APPROVAL_DATE_TIME ( #214, #17 ) ;
#176 = EDGE_LOOP ( 'NONE', ( #91 ) ) ;
#177 = ORIENTED_EDGE ( 'NONE', *, *, #248, .F. ) ;
#178 = CIRCLE ( 'NONE', #247, 1.200000000000003286 ) ;
#179 = CC_DESIGN_APPROVAL ( #145, ( #186 ) ) ;
#180 = ORIENTED_EDGE ( 'NONE', *, *, #279, .T. ) ;
#181 = ADVANCED_FACE ( 'NONE', ( #254, #140 ), #230, .T. ) ;
#182 = CARTESIAN_POINT ( 'NONE',  ( 3.491481338843132369E-16, -1.224646799147352807E-17, 0.09999999999999996392 ) ) ;
#183 = CYLINDRICAL_SURFACE ( 'NONE', #93, 0.2249999999999995615 ) ;
#184 = CIRCLE ( 'NONE', #73, 0.2249999999999994227 ) ;
#185 = CARTESIAN_POINT ( 'NONE',  ( 1.866998543791203065E-14, -6.548549365651905381E-16, 5.347296355333847728 ) ) ;
#186 = PRODUCT_DEFINITION_FORMATION_WITH_SPECIFIED_SOURCE ( 'ANY', '', #166, .NOT_KNOWN. ) ;
#187 = EDGE_CURVE ( 'NONE', #129, #129, #105, .T. ) ;
#188 = MECHANICAL_CONTEXT ( 'NONE', #201, 'mechanical' ) ;
#189 = CARTESIAN_POINT ( 'NONE',  ( 1.047444401652940007E-14, 1.687229755494579545E-33, 3.000000000000000000 ) ) ;
#190 = VERTEX_POINT ( 'NONE', #90 ) ;
#191 = DIRECTION ( 'NONE',  ( 0.0000000000000000000, 1.000000000000000000, 0.0000000000000000000 ) ) ;
#192 = CIRCLE ( 'NONE', #143, 0.1672649730810372715 ) ;
#193 = CARTESIAN_POINT ( 'NONE',  ( 1.047444401652940007E-14, 0.2249999999999990341, 3.000000000000000000 ) ) ;
#194 = EDGE_LOOP ( 'NONE', ( #122 ) ) ;
#195 = COORDINATED_UNIVERSAL_TIME_OFFSET ( 1, 0, .AHEAD. ) ;
#196 = CARTESIAN_POINT ( 'NONE',  ( 3.491481338843133355E-16, 0.2249999999999990064, 0.09999999999999999167 ) ) ;
#197 = DIRECTION ( 'NONE',  ( 4.279844320860543288E-31, 1.000000000000000000, 1.204669080539454767E-16 ) ) ;
#198 = PERSON_AND_ORGANIZATION ( #88, #259 ) ;
#199 = CC_DESIGN_APPROVAL ( #17, ( #249 ) ) ;
#200 = SECURITY_CLASSIFICATION_LEVEL ( 'unclassified' ) ;
#201 = APPLICATION_CONTEXT ( 'configuration controlled 3d designs of mechanical parts and assemblies' ) ;
#202 = AXIS2_PLACEMENT_3D ( 'NONE', #234, #132, #237 ) ;
#203 = CARTESIAN_POINT ( 'NONE',  ( 1.745740669421566362E-14, -6.123233995736765296E-16, 4.999999999999999112 ) ) ;
#204 = DIRECTION ( 'NONE',  ( -3.491481338843133355E-15, 1.224646799147353207E-16, -1.000000000000000000 ) ) ;
#205 = DIRECTION ( 'NONE',  ( -4.275831445896958607E-31, -1.000000000000000000, -1.224646799147353207E-16 ) ) ;
#206 = AXIS2_PLACEMENT_3D ( 'NONE', #9, #138, #67 ) ;
#207 = CARTESIAN_POINT ( 'NONE',  ( 1.316288464743861212E-13, 1.499999999999998668, 37.69999999999999574 ) ) ;
#208 = AXIS2_PLACEMENT_3D ( 'NONE', #172, #121, #225 ) ;
#209 = CC_DESIGN_DATE_AND_TIME_ASSIGNMENT ( #116, #69, ( #106 ) ) ;
#210 = PERSON_AND_ORGANIZATION ( #88, #259 ) ;
#211 = AXIS2_PLACEMENT_3D ( 'NONE', #59, #165, #163 ) ;
#212 = ORIENTED_EDGE ( 'NONE', *, *, #56, .T. ) ;
#213 = PERSON_AND_ORGANIZATION ( #88, #259 ) ;
#214 = DATE_AND_TIME ( #109, #51 ) ;
#215 = ORIENTED_EDGE ( 'NONE', *, *, #99, .F. ) ;
#216 = DESIGN_CONTEXT ( 'detailed design', #50, 'design' ) ;
#217 = EDGE_LOOP ( 'NONE', ( #134 ) ) ;
#218 = DIRECTION ( 'NONE',  ( -4.275831445896958607E-31, -1.000000000000000000, -1.224646799147353207E-16 ) ) ;
#219 = CC_DESIGN_PERSON_AND_ORGANIZATION_ASSIGNMENT ( #83, #169, ( #166 ) ) ;
#220 = UNCERTAINTY_MEASURE_WITH_UNIT (LENGTH_MEASURE( 1.000000000000000082E-05 ), #35, 'distance_accuracy_value', 'NONE');
#221 = AXIS2_PLACEMENT_3D ( 'NONE', #185, #75, #16 ) ;
#222 = DIRECTION ( 'NONE',  ( -3.491481338843133355E-15, 1.224646799147353207E-16, -1.000000000000000000 ) ) ;
#223 = ADVANCED_FACE ( 'NONE', ( #126, #5 ), #13, .T. ) ;
#224 = EDGE_LOOP ( 'NONE', ( #283 ) ) ;
#225 = DIRECTION ( 'NONE',  ( 4.275831445896958607E-31, 1.000000000000000000, 1.224646799147353207E-16 ) ) ;
#226 = CC_DESIGN_SECURITY_CLASSIFICATION ( #106, ( #186 ) ) ;
#227 = CARTESIAN_POINT ( 'NONE',  ( 4.331483443299614047E-14, -1.519279875674269719E-15, 12.40586164706470029 ) ) ;
#228 = ADVANCED_FACE ( 'NONE', ( #245, #124 ), #271, .T. ) ;
#229 = CARTESIAN_POINT ( 'NONE',  ( 1.326762908760390423E-13, -4.653657836759941941E-15, 38.00000000000000000 ) ) ;
#230 = CYLINDRICAL_SURFACE ( 'NONE', #260, 0.2249999999999992284 ) ;
#231 = APPROVAL_ROLE ( '' ) ;
#232 = EDGE_CURVE ( 'NONE', #141, #141, #192, .T. ) ;
#233 = EDGE_LOOP ( 'NONE', ( #68 ) ) ;
#234 = CARTESIAN_POINT ( 'NONE',  ( 0.0000000000000000000, 0.0000000000000000000, 0.0000000000000000000 ) ) ;
#235 = MANIFOLD_SOLID_BREP ( 'Corps-Déplacer/Copier1[1]', #170 ) ;
#236 = ORIENTED_EDGE ( 'NONE', *, *, #232, .F. ) ;
#237 = DIRECTION ( 'NONE',  ( 1.000000000000000000, 0.0000000000000000000, 0.0000000000000000000 ) ) ;
#238 = PERSON_AND_ORGANIZATION_ROLE ( 'design_supplier' ) ;
#239 = ORIENTED_EDGE ( 'NONE', *, *, #279, .F. ) ;
#240 = PERSON_AND_ORGANIZATION ( #88, #259 ) ;
#241 = DIRECTION ( 'NONE',  ( 0.0000000000000000000, 1.000000000000000000, 0.0000000000000000000 ) ) ;
#242 = TOROIDAL_SURFACE ( 'NONE', #211, 2.224999999999999645, 2.000000000000000000 ) ;
#243 = LOCAL_TIME ( 8, 27, 29.00000000000000000, #42 ) ;
#244 = FACE_OUTER_BOUND ( 'NONE', #233, .T. ) ;
#245 = FACE_OUTER_BOUND ( 'NONE', #176, .T. ) ;
#246 = PRODUCT_RELATED_PRODUCT_CATEGORY ( 'detail', '', ( #166 ) ) ;
#247 = AXIS2_PLACEMENT_3D ( 'NONE', #229, #108, #65 ) ;
#248 = EDGE_CURVE ( 'NONE', #112, #112, #184, .T. ) ;
#249 = PRODUCT_DEFINITION ( 'UNKNOWN', '', #186, #216 ) ;
#250 = FACE_OUTER_BOUND ( 'NONE', #23, .T. ) ;
#251 = CARTESIAN_POINT ( 'NONE',  ( 0.0000000000000000000, 0.0000000000000000000, 0.0000000000000000000 ) ) ;
#252 = DIRECTION ( 'NONE',  ( -3.491481338843133355E-15, 1.224646799147353207E-16, -1.000000000000000000 ) ) ;
#253 = AXIS2_PLACEMENT_3D ( 'NONE', #227, #255, #33 ) ;
#254 = FACE_OUTER_BOUND ( 'NONE', #41, .T. ) ;
#255 = DIRECTION ( 'NONE',  ( -3.491481338843133355E-15, 1.224646799147353207E-16, -1.000000000000000000 ) ) ;
#256 = APPLICATION_PROTOCOL_DEFINITION ( 'international standard', 'config_control_design', 1994, #50 ) ;
#257 = APPROVAL_PERSON_ORGANIZATION ( #144, #17, #231 ) ;
#258 = COORDINATED_UNIVERSAL_TIME_OFFSET ( 1, 0, .AHEAD. ) ;
#259 = ORGANIZATION ( 'UNSPECIFIED', 'UNSPECIFIED', '' ) ;
#260 = AXIS2_PLACEMENT_3D ( 'NONE', #251, #53, #82 ) ;
#261 = EDGE_LOOP ( 'NONE', ( #49 ) ) ;
#262 = FACE_OUTER_BOUND ( 'NONE', #62, .T. ) ;
#263 = EDGE_LOOP ( 'NONE', ( #180 ) ) ;
#264 = APPROVAL_STATUS ( 'not_yet_approved' ) ;
#265 = DATE_AND_TIME ( #63, #27 ) ;
#266 = PLANE ( 'NONE',  #272 ) ;
#267 = CARTESIAN_POINT ( 'NONE',  ( 3.491481338843132369E-16, -1.224646799147352807E-17, 0.09999999999999996392 ) ) ;
#268 = CC_DESIGN_DATE_AND_TIME_ASSIGNMENT ( #265, #37, ( #249 ) ) ;
#269 = CIRCLE ( 'NONE', #221, 0.2553844939755809396 ) ;
#270 = APPROVAL_PERSON_ORGANIZATION ( #198, #127, #3 ) ;
#271 = CYLINDRICAL_SURFACE ( 'NONE', #277, 1.500000000000000000 ) ;
#272 = AXIS2_PLACEMENT_3D ( 'NONE', #71, #114, #205 ) ;
#273 = DIRECTION ( 'NONE',  ( 0.0000000000000000000, -1.000000000000000000, 0.0000000000000000000 ) ) ;
#274 = DIRECTION ( 'NONE',  ( 3.491481338843133355E-15, -1.224646799147353207E-16, 1.000000000000000000 ) ) ;
#275 = CC_DESIGN_PERSON_AND_ORGANIZATION_ASSIGNMENT ( #92, #238, ( #186 ) ) ;
#276 = CARTESIAN_POINT ( 'NONE',  ( 1.745740669421566362E-14, 0.2249999999999990619, 4.999999999999999112 ) ) ;
#277 = AXIS2_PLACEMENT_3D ( 'NONE', #160, #222, #164 ) ;
#278 = PERSON_AND_ORGANIZATION_ROLE ( 'creator' ) ;
#279 = EDGE_CURVE ( 'NONE', #61, #61, #178, .T. ) ;
#280 = CARTESIAN_POINT ( 'NONE',  ( 1.326762908760390423E-13, -4.653657836759941941E-15, 38.00000000000000000 ) ) ;
#281 = AXIS2_PLACEMENT_3D ( 'NONE', #98, #155, #241 ) ;
#282 = LOCAL_TIME ( 8, 27, 29.00000000000000000, #119 ) ;
#283 = ORIENTED_EDGE ( 'NONE', *, *, #113, .F. ) ;
ENDSEC;
END-ISO-10303-21;
