ISO-10303-21;
HEADER;
FILE_DESCRIPTION (( 'STEP AP203' ),
    '1' );
FILE_NAME ('965177.step',
    '2021-12-01T14:04:24',
    ( '' ),
    ( '' ),
    'SwSTEP 2.0',
    'SolidWorks 2019',
    '' );
FILE_SCHEMA (( 'CONFIG_CONTROL_DESIGN' ));
ENDSEC;

DATA;
#1 = FACE_OUTER_BOUND ( 'NONE', #184, .T. ) ;
#2 = ORIENTED_EDGE ( 'NONE', *, *, #61, .T. ) ;
#3 = CONICAL_SURFACE ( 'NONE', #177, 0.9549999999999991829, 0.5235987755982927094 ) ;
#4 = ADVANCED_BREP_SHAPE_REPRESENTATION ( '965177', ( #53, #56, #149 ), #279 ) ;
#5 = APPROVAL ( #64, 'UNSPECIFIED' ) ;
#6 = APPROVAL_DATE_TIME ( #10, #132 ) ;
#7 = ADVANCED_FACE ( 'NONE', ( #13 ), #297, .T. ) ;
#8 = DIRECTION ( 'NONE',  ( -3.491481338843133355E-15, 1.224646799147353207E-16, -1.000000000000000000 ) ) ;
#9 = CARTESIAN_POINT ( 'NONE',  ( 8.728703347107835360E-16, 0.9549999999999991829, 0.2500000000000000555 ) ) ;
#10 = DATE_AND_TIME ( #57, #69 ) ;
#11 = DIRECTION ( 'NONE',  ( -3.491481338843133355E-15, 1.224646799147353207E-16, -1.000000000000000000 ) ) ;
#12 = EDGE_LOOP ( 'NONE', ( #38 ) ) ;
#13 = FACE_OUTER_BOUND ( 'NONE', #31, .T. ) ;
#14 = AXIS2_PLACEMENT_3D ( 'NONE', #277, #147, #173 ) ;
#15 = DIRECTION ( 'NONE',  ( 4.275831445896958607E-31, 1.000000000000000000, 1.224646799147353207E-16 ) ) ;
#16 = CARTESIAN_POINT ( 'NONE',  ( 7.721941054645734412E-14, -2.708492321173281438E-15, 22.11651819168628208 ) ) ;
#17 = VERTEX_POINT ( 'NONE', #271 ) ;
#18 = DIRECTION ( 'NONE',  ( -3.491481338843133355E-15, 1.224646799147353207E-16, -1.000000000000000000 ) ) ;
#19 = CC_DESIGN_SECURITY_CLASSIFICATION ( #196, ( #157 ) ) ;
#20 = DIRECTION ( 'NONE',  ( 3.491481338843133355E-15, -1.224646799147353207E-16, 1.000000000000000000 ) ) ;
#21 = AXIS2_PLACEMENT_3D ( 'NONE', #16, #301, #138 ) ;
#22 = ORIENTED_EDGE ( 'NONE', *, *, #268, .T. ) ;
#23 = CARTESIAN_POINT ( 'NONE',  ( 1.745740669421566678E-13, -6.123233995736766085E-15, 50.00000000000000000 ) ) ;
#24 = CC_DESIGN_PERSON_AND_ORGANIZATION_ASSIGNMENT ( #280, #226, ( #263 ) ) ;
#25 = ADVANCED_FACE ( 'NONE', ( #33, #174 ), #192, .T. ) ;
#26 = AXIS2_PLACEMENT_3D ( 'NONE', #114, #215, #299 ) ;
#27 = DIRECTION ( 'NONE',  ( -3.491481338843133355E-15, 1.224646799147353207E-16, -1.000000000000000000 ) ) ;
#28 = PERSON_AND_ORGANIZATION_ROLE ( 'classification_officer' ) ;
#29 = APPROVAL_PERSON_ORGANIZATION ( #105, #240, #292 ) ;
#30 = COORDINATED_UNIVERSAL_TIME_OFFSET ( 1, 0, .AHEAD. ) ;
#31 = EDGE_LOOP ( 'NONE', ( #163 ) ) ;
#32 = EDGE_LOOP ( 'NONE', ( #96 ) ) ;
#33 = FACE_OUTER_BOUND ( 'NONE', #200, .T. ) ;
#34 = DIRECTION ( 'NONE',  ( 1.000000000000000000, 0.0000000000000000000, 0.0000000000000000000 ) ) ;
#35 = CARTESIAN_POINT ( 'NONE',  ( 6.284666409917638777E-14, -2.204364238465235033E-15, 17.99999999999999645 ) ) ;
#36 = CALENDAR_DATE ( 2021, 1, 12 ) ;
#37 = AXIS2_PLACEMENT_3D ( 'NONE', #218, #160, #262 ) ;
#38 = ORIENTED_EDGE ( 'NONE', *, *, #52, .F. ) ;
#39 = APPLICATION_PROTOCOL_DEFINITION ( 'international standard', 'config_control_design', 1994, #186 ) ;
#40 = CC_DESIGN_DATE_AND_TIME_ASSIGNMENT ( #202, #122, ( #196 ) ) ;
#41 = CARTESIAN_POINT ( 'NONE',  ( 8.728703347107831416E-16, -3.061616997868382402E-17, 0.2499999999999999445 ) ) ;
#42 = MECHANICAL_CONTEXT ( 'NONE', #186, 'mechanical' ) ;
#43 = DIRECTION ( 'NONE',  ( 0.0000000000000000000, 1.000000000000000000, 0.0000000000000000000 ) ) ;
#44 = AXIS2_PLACEMENT_3D ( 'NONE', #212, #141, #113 ) ;
#45 = DATE_TIME_ROLE ( 'creation_date' ) ;
#46 = DIRECTION ( 'NONE',  ( -4.033361140077983990E-31, -1.000000000000000000, -1.135290232969115476E-16 ) ) ;
#47 = DIRECTION ( 'NONE',  ( 3.491481338843133355E-15, -1.224646799147353207E-16, 1.000000000000000000 ) ) ;
#48 = APPROVAL_PERSON_ORGANIZATION ( #80, #5, #300 ) ;
#49 = PRODUCT ( '965177', '965177', '', ( #42 ) ) ;
#50 = DIRECTION ( 'NONE',  ( -3.491481338843133355E-15, 1.224646799147353207E-16, -1.000000000000000000 ) ) ;
#51 = AXIS2_PLACEMENT_3D ( 'NONE', #270, #152, #59 ) ;
#52 = EDGE_CURVE ( 'NONE', #273, #273, #236, .T. ) ;
#53 = MANIFOLD_SOLID_BREP ( 'Corps-Déplacer/Copier1[1]', #293 ) ;
#54 = CARTESIAN_POINT ( 'NONE',  ( 8.728703347107831416E-16, -3.061616997868382402E-17, 0.2499999999999999445 ) ) ;
#55 = PERSON_AND_ORGANIZATION_ROLE ( 'design_supplier' ) ;
#56 = MANIFOLD_SOLID_BREP ( 'Corps-Déplacer/Copier1[2]', #131 ) ;
#57 = CALENDAR_DATE ( 2021, 1, 12 ) ;
#58 = CC_DESIGN_APPROVAL ( #240, ( #196 ) ) ;
#59 = DIRECTION ( 'NONE',  ( 0.0000000000000000000, 1.000000000000000000, 0.0000000000000000000 ) ) ;
#60 = CARTESIAN_POINT ( 'NONE',  ( 0.0000000000000000000, 0.0000000000000000000, 0.0000000000000000000 ) ) ;
#61 = EDGE_CURVE ( 'NONE', #296, #296, #153, .T. ) ;
#62 = DATE_AND_TIME ( #36, #242 ) ;
#63 = CIRCLE ( 'NONE', #221, 0.9549999999999991829 ) ;
#64 = APPROVAL_STATUS ( 'not_yet_approved' ) ;
#65 = CARTESIAN_POINT ( 'NONE',  ( 1.735266225405037467E-13, 1.499999999999995559, 49.70000000000000284 ) ) ;
#66 = FACE_BOUND ( 'NONE', #213, .T. ) ;
#67 = CARTESIAN_POINT ( 'NONE',  ( 2.793185071074506684E-14, 0.9549999999999991829, 8.000000000000000000 ) ) ;
#68 = FACE_OUTER_BOUND ( 'NONE', #94, .T. ) ;
#69 = LOCAL_TIME ( 15, 4, 24.00000000000000000, #267 ) ;
#70 = CALENDAR_DATE ( 2021, 1, 12 ) ;
#71 = DIRECTION ( 'NONE',  ( 3.491481338843133355E-15, -1.224646799147353207E-16, 1.000000000000000000 ) ) ;
#72 = EDGE_CURVE ( 'NONE', #17, #17, #79, .T. ) ;
#73 = PLANE ( 'NONE',  #146 ) ;
#74 = FACE_OUTER_BOUND ( 'NONE', #12, .T. ) ;
#75 = CYLINDRICAL_SURFACE ( 'NONE', #78, 1.499999999999999112 ) ;
#76 = EDGE_CURVE ( 'NONE', #255, #255, #230, .T. ) ;
#77 = EDGE_LOOP ( 'NONE', ( #151 ) ) ;
#78 = AXIS2_PLACEMENT_3D ( 'NONE', #197, #27, #125 ) ;
#79 = CIRCLE ( 'NONE', #37, 0.9550000000000000711 ) ;
#80 = PERSON_AND_ORGANIZATION ( #194, #81 ) ;
#81 = ORGANIZATION ( 'UNSPECIFIED', 'UNSPECIFIED', '' ) ;
#82 = AXIS2_PLACEMENT_3D ( 'NONE', #165, #18, #210 ) ;
#83 = CC_DESIGN_PERSON_AND_ORGANIZATION_ASSIGNMENT ( #251, #55, ( #157 ) ) ;
#84 = CALENDAR_DATE ( 2021, 1, 12 ) ;
#85 = VERTEX_POINT ( 'NONE', #67 ) ;
#86 = CYLINDRICAL_SURFACE ( 'NONE', #187, 0.8049999999999997158 ) ;
#87 = ORIENTED_EDGE ( 'NONE', *, *, #61, .F. ) ;
#88 = FACE_OUTER_BOUND ( 'NONE', #246, .T. ) ;
#89 = EDGE_LOOP ( 'NONE', ( #2 ) ) ;
#90 = COORDINATED_UNIVERSAL_TIME_OFFSET ( 1, 0, .AHEAD. ) ;
#91 = FACE_OUTER_BOUND ( 'NONE', #275, .T. ) ;
#92 = AXIS2_PLACEMENT_3D ( 'NONE', #23, #278, #182 ) ;
#93 = CARTESIAN_POINT ( 'NONE',  ( 7.721941054645734412E-14, -2.708492321173281438E-15, 22.11651819168628208 ) ) ;
#94 = EDGE_LOOP ( 'NONE', ( #179 ) ) ;
#95 = CARTESIAN_POINT ( 'NONE',  ( 1.745740669421566678E-13, 8.998558695971067645E-33, 50.00000000000000000 ) ) ;
#96 = ORIENTED_EDGE ( 'NONE', *, *, #191, .T. ) ;
#97 = CARTESIAN_POINT ( 'NONE',  ( 6.405924284287273902E-14, -2.246895775456748746E-15, 18.34729635533384240 ) ) ;
#98 = EDGE_LOOP ( 'NONE', ( #287 ) ) ;
#99 = ADVANCED_FACE ( 'NONE', ( #116, #190 ), #3, .T. ) ;
#100 = SHAPE_DEFINITION_REPRESENTATION ( #198, #4 ) ;
#101 = EDGE_CURVE ( 'NONE', #85, #85, #243, .T. ) ;
#102 = AXIS2_PLACEMENT_3D ( 'NONE', #195, #302, #43 ) ;
#103 = AXIS2_PLACEMENT_3D ( 'NONE', #168, #50, #118 ) ;
#104 = ADVANCED_FACE ( 'NONE', ( #68, #220 ), #254, .T. ) ;
#105 = PERSON_AND_ORGANIZATION ( #194, #81 ) ;
#106 = DATE_AND_TIME ( #84, #234 ) ;
#107 = CC_DESIGN_PERSON_AND_ORGANIZATION_ASSIGNMENT ( #224, #261, ( #49 ) ) ;
#108 = DIRECTION ( 'NONE',  ( 0.0000000000000000000, 1.000000000000000000, 0.0000000000000000000 ) ) ;
#109 = EDGE_LOOP ( 'NONE', ( #22 ) ) ;
#110 = EDGE_LOOP ( 'NONE', ( #150 ) ) ;
#111 = PERSON_AND_ORGANIZATION ( #194, #81 ) ;
#112 = DIRECTION ( 'NONE',  ( 3.491481338843133355E-15, -1.224646799147353207E-16, 1.000000000000000000 ) ) ;
#113 = DIRECTION ( 'NONE',  ( 0.0000000000000000000, 1.000000000000000000, 0.0000000000000000000 ) ) ;
#114 = CARTESIAN_POINT ( 'NONE',  ( -1.573520095373920083E-31, 5.519165538006865070E-33, -4.506740671554870674E-17 ) ) ;
#115 = CARTESIAN_POINT ( 'NONE',  ( 6.284666409917638777E-14, 0.8049999999999979394, 17.99999999999999645 ) ) ;
#116 = FACE_BOUND ( 'NONE', #77, .T. ) ;
#117 = EDGE_CURVE ( 'NONE', #140, #140, #282, .T. ) ;
#118 = DIRECTION ( 'NONE',  ( 4.275831445896958607E-31, 1.000000000000000000, 1.224646799147353207E-16 ) ) ;
#119 = DESIGN_CONTEXT ( 'detailed design', #172, 'design' ) ;
#120 = FACE_OUTER_BOUND ( 'NONE', #98, .T. ) ;
#121 = ADVANCED_FACE ( 'NONE', ( #66, #193 ), #223, .T. ) ;
#122 = DATE_TIME_ROLE ( 'classification_date' ) ;
#123 = ADVANCED_FACE ( 'NONE', ( #229, #232 ), #283, .T. ) ;
#124 = SECURITY_CLASSIFICATION_LEVEL ( 'unclassified' ) ;
#125 = DIRECTION ( 'NONE',  ( 4.275831445896958607E-31, 1.000000000000000000, 1.224646799147353454E-16 ) ) ;
#126 = AXIS2_PLACEMENT_3D ( 'NONE', #257, #47, #185 ) ;
#127 = EDGE_LOOP ( 'NONE', ( #87 ) ) ;
#128 = ORIENTED_EDGE ( 'NONE', *, *, #101, .T. ) ;
#129 = VERTEX_POINT ( 'NONE', #65 ) ;
#130 = ADVANCED_FACE ( 'NONE', ( #88 ), #73, .F. ) ;
#131 = CLOSED_SHELL ( 'NONE', ( #155, #99, #123, #7 ) ) ;
#132 = APPROVAL ( #176, 'UNSPECIFIED' ) ;
#133 = ADVANCED_FACE ( 'NONE', ( #281, #91 ), #244, .F. ) ;
#134 = VERTEX_POINT ( 'NONE', #291 ) ;
#135 = CC_DESIGN_PERSON_AND_ORGANIZATION_ASSIGNMENT ( #148, #28, ( #196 ) ) ;
#136 =( LENGTH_UNIT ( ) NAMED_UNIT ( * ) SI_UNIT ( .MILLI., .METRE. ) );
#137 = DIRECTION ( 'NONE',  ( -3.491481338843133355E-15, 1.224646799147353207E-16, -1.000000000000000000 ) ) ;
#138 = DIRECTION ( 'NONE',  ( 0.0000000000000000000, -1.000000000000000000, 0.0000000000000000000 ) ) ;
#139 = ADVANCED_FACE ( 'NONE', ( #264 ), #285, .F. ) ;
#140 = VERTEX_POINT ( 'NONE', #256 ) ;
#141 = DIRECTION ( 'NONE',  ( -3.491481338843133355E-15, 1.224646799147353207E-16, -1.000000000000000000 ) ) ;
#142 = CIRCLE ( 'NONE', #92, 1.200000000000001732 ) ;
#143 = PLANE ( 'NONE',  #247 ) ;
#144 = DIRECTION ( 'NONE',  ( -3.491481338843133355E-15, 1.224646799147353207E-16, -1.000000000000000000 ) ) ;
#145 = AXIS2_PLACEMENT_3D ( 'NONE', #93, #137, #162 ) ;
#146 = AXIS2_PLACEMENT_3D ( 'NONE', #95, #233, #235 ) ;
#147 = DIRECTION ( 'NONE',  ( -3.491481338843133355E-15, 1.224646799147353207E-16, -1.000000000000000000 ) ) ;
#148 = PERSON_AND_ORGANIZATION ( #194, #81 ) ;
#149 = AXIS2_PLACEMENT_3D ( 'NONE', #60, #258, #34 ) ;
#150 = ORIENTED_EDGE ( 'NONE', *, *, #117, .T. ) ;
#151 = ORIENTED_EDGE ( 'NONE', *, *, #76, .F. ) ;
#152 = DIRECTION ( 'NONE',  ( -3.491481338843133355E-15, 1.224646799147353207E-16, -1.000000000000000000 ) ) ;
#153 = CIRCLE ( 'NONE', #216, 0.8050000000000001599 ) ;
#154 = ORIENTED_EDGE ( 'NONE', *, *, #238, .F. ) ;
#155 = ADVANCED_FACE ( 'NONE', ( #120 ), #143, .F. ) ;
#156 = ADVANCED_FACE ( 'NONE', ( #74, #170 ), #86, .T. ) ;
#157 = PRODUCT_DEFINITION_FORMATION_WITH_SPECIFIED_SOURCE ( 'ANY', '', #49, .NOT_KNOWN. ) ;
#158 = APPROVAL_DATE_TIME ( #106, #5 ) ;
#159 = ORIENTED_EDGE ( 'NONE', *, *, #290, .F. ) ;
#160 = DIRECTION ( 'NONE',  ( -3.491481338843133355E-15, 1.224646799147353207E-16, -1.000000000000000000 ) ) ;
#161 =( NAMED_UNIT ( * ) SI_UNIT ( $, .STERADIAN. ) SOLID_ANGLE_UNIT ( ) );
#162 = DIRECTION ( 'NONE',  ( 0.0000000000000000000, 1.000000000000000000, 0.0000000000000000000 ) ) ;
#163 = ORIENTED_EDGE ( 'NONE', *, *, #101, .F. ) ;
#164 = DATE_AND_TIME ( #70, #289 ) ;
#165 = CARTESIAN_POINT ( 'NONE',  ( 0.0000000000000000000, 0.0000000000000000000, 0.0000000000000000000 ) ) ;
#166 = CC_DESIGN_PERSON_AND_ORGANIZATION_ASSIGNMENT ( #178, #201, ( #157 ) ) ;
#167 = COORDINATED_UNIVERSAL_TIME_OFFSET ( 1, 0, .AHEAD. ) ;
#168 = CARTESIAN_POINT ( 'NONE',  ( 6.284666409917640040E-14, -2.168404344971008868E-15, 18.00000000000000000 ) ) ;
#169 = CC_DESIGN_DATE_AND_TIME_ASSIGNMENT ( #164, #45, ( #263 ) ) ;
#170 = FACE_OUTER_BOUND ( 'NONE', #89, .T. ) ;
#171 = APPROVAL_ROLE ( '' ) ;
#172 = APPLICATION_CONTEXT ( 'configuration controlled 3d designs of mechanical parts and assemblies' ) ;
#173 = DIRECTION ( 'NONE',  ( 0.0000000000000000000, 1.000000000000000000, 0.0000000000000000000 ) ) ;
#174 = FACE_BOUND ( 'NONE', #32, .T. ) ;
#175 = CIRCLE ( 'NONE', #253, 0.8353844939755812327 ) ;
#176 = APPROVAL_STATUS ( 'not_yet_approved' ) ;
#177 = AXIS2_PLACEMENT_3D ( 'NONE', #41, #71, #46 ) ;
#178 = PERSON_AND_ORGANIZATION ( #194, #81 ) ;
#179 = ORIENTED_EDGE ( 'NONE', *, *, #72, .F. ) ;
#180 = VERTEX_POINT ( 'NONE', #276 ) ;
#181 = VERTEX_POINT ( 'NONE', #9 ) ;
#182 = DIRECTION ( 'NONE',  ( 0.0000000000000000000, 1.000000000000000000, 0.0000000000000000000 ) ) ;
#183 = PRODUCT_RELATED_PRODUCT_CATEGORY ( 'detail', '', ( #49 ) ) ;
#184 = EDGE_LOOP ( 'NONE', ( #227 ) ) ;
#185 = DIRECTION ( 'NONE',  ( -4.275831445896958607E-31, -1.000000000000000000, -1.224646799147353207E-16 ) ) ;
#186 = APPLICATION_CONTEXT ( 'configuration controlled 3d designs of mechanical parts and assemblies' ) ;
#187 = AXIS2_PLACEMENT_3D ( 'NONE', #266, #144, #15 ) ;
#188 = ORIENTED_EDGE ( 'NONE', *, *, #268, .F. ) ;
#189 = COORDINATED_UNIVERSAL_TIME_OFFSET ( 1, 0, .AHEAD. ) ;
#190 = FACE_OUTER_BOUND ( 'NONE', #109, .T. ) ;
#191 = EDGE_CURVE ( 'NONE', #134, #134, #142, .T. ) ;
#192 = CONICAL_SURFACE ( 'NONE', #51, 1.200000000000001732, 0.7853981633974453924 ) ;
#193 = FACE_OUTER_BOUND ( 'NONE', #110, .T. ) ;
#194 = PERSON ( 'UNSPECIFIED', 'UNSPECIFIED', 'UNSPECIFIED', ('UNSPECIFIED'), ('UNSPECIFIED'), ('UNSPECIFIED') ) ;
#195 = CARTESIAN_POINT ( 'NONE',  ( 2.883896417162832445E-14, -1.011534696479630343E-15, 8.259807621135337286 ) ) ;
#196 = SECURITY_CLASSIFICATION ( '', '', #124 ) ;
#197 = CARTESIAN_POINT ( 'NONE',  ( 0.0000000000000000000, 0.0000000000000000000, 0.0000000000000000000 ) ) ;
#198 = PRODUCT_DEFINITION_SHAPE ( 'NONE', 'NONE',  #263 ) ;
#199 = AXIS2_PLACEMENT_3D ( 'NONE', #252, #112, #207 ) ;
#200 = EDGE_LOOP ( 'NONE', ( #154 ) ) ;
#201 = PERSON_AND_ORGANIZATION_ROLE ( 'creator' ) ;
#202 = DATE_AND_TIME ( #219, #222 ) ;
#203 = APPROVAL_DATE_TIME ( #62, #240 ) ;
#204 = APPROVAL_PERSON_ORGANIZATION ( #111, #132, #171 ) ;
#205 = DIRECTION ( 'NONE',  ( 0.0000000000000000000, 1.000000000000000000, 0.0000000000000000000 ) ) ;
#206 = CIRCLE ( 'NONE', #14, 1.500000000000001554 ) ;
#207 = DIRECTION ( 'NONE',  ( -4.275831445896958607E-31, -1.000000000000000000, -1.224646799147353207E-16 ) ) ;
#208 = ORIENTED_EDGE ( 'NONE', *, *, #117, .F. ) ;
#209 = CARTESIAN_POINT ( 'NONE',  ( 1.892735826383161575E-31, 0.8106624327025947485, 5.421010862427522170E-17 ) ) ;
#210 = DIRECTION ( 'NONE',  ( 4.275831445896958607E-31, 1.000000000000000000, 1.224646799147352961E-16 ) ) ;
#211 = APPLICATION_PROTOCOL_DEFINITION ( 'international standard', 'config_control_design', 1994, #172 ) ;
#212 = CARTESIAN_POINT ( 'NONE',  ( 2.793185071074506684E-14, -9.797174393178825657E-16, 8.000000000000000000 ) ) ;
#213 = EDGE_LOOP ( 'NONE', ( #159 ) ) ;
#214 = CC_DESIGN_APPROVAL ( #132, ( #157 ) ) ;
#215 = DIRECTION ( 'NONE',  ( -3.491481338843133355E-15, 1.224646799147353207E-16, -1.000000000000000000 ) ) ;
#216 = AXIS2_PLACEMENT_3D ( 'NONE', #35, #11, #108 ) ;
#217 = EDGE_LOOP ( 'NONE', ( #295 ) ) ;
#218 = CARTESIAN_POINT ( 'NONE',  ( 2.793185071074506684E-14, -9.797174393178825657E-16, 8.000000000000000000 ) ) ;
#219 = CALENDAR_DATE ( 2021, 1, 12 ) ;
#220 = FACE_BOUND ( 'NONE', #274, .T. ) ;
#221 = AXIS2_PLACEMENT_3D ( 'NONE', #54, #286, #269 ) ;
#222 = LOCAL_TIME ( 15, 4, 24.00000000000000000, #167 ) ;
#223 = CONICAL_SURFACE ( 'NONE', #21, 1.499999999999996669, 0.1745329251994261199 ) ;
#224 = PERSON_AND_ORGANIZATION ( #194, #81 ) ;
#225 = CARTESIAN_POINT ( 'NONE',  ( 2.883896417162832445E-14, -1.011534696479630343E-15, 8.259807621135337286 ) ) ;
#226 = PERSON_AND_ORGANIZATION_ROLE ( 'creator' ) ;
#227 = ORIENTED_EDGE ( 'NONE', *, *, #238, .T. ) ;
#228 = CARTESIAN_POINT ( 'NONE',  ( 2.883896417162832445E-14, 0.8049999999999981615, 8.259807621135337286 ) ) ;
#229 = FACE_OUTER_BOUND ( 'NONE', #298, .T. ) ;
#230 = CIRCLE ( 'NONE', #26, 0.8106624327025947485 ) ;
#231 = DIRECTION ( 'NONE',  ( -3.491481338843133355E-15, 1.224646799147353207E-16, -1.000000000000000000 ) ) ;
#232 = FACE_OUTER_BOUND ( 'NONE', #248, .T. ) ;
#233 = DIRECTION ( 'NONE',  ( -3.491481338843133355E-15, 1.224646799147353207E-16, -1.000000000000000000 ) ) ;
#234 = LOCAL_TIME ( 15, 4, 24.00000000000000000, #90 ) ;
#235 = DIRECTION ( 'NONE',  ( 4.275831445896958607E-31, 1.000000000000000000, 1.224646799147353207E-16 ) ) ;
#236 = CIRCLE ( 'NONE', #259, 0.8049999999999991607 ) ;
#237 = EDGE_LOOP ( 'NONE', ( #208 ) ) ;
#238 = EDGE_CURVE ( 'NONE', #129, #129, #206, .T. ) ;
#239 = CARTESIAN_POINT ( 'NONE',  ( -7.867600476869600416E-32, 2.759582769003432535E-33, -2.253370335777435337E-17 ) ) ;
#240 = APPROVAL ( #272, 'UNSPECIFIED' ) ;
#241 = UNCERTAINTY_MEASURE_WITH_UNIT (LENGTH_MEASURE( 1.000000000000000082E-05 ), #136, 'distance_accuracy_value', 'NONE');
#242 = LOCAL_TIME ( 15, 4, 24.00000000000000000, #30 ) ;
#243 = CIRCLE ( 'NONE', #44, 0.9550000000000000711 ) ;
#244 = TOROIDAL_SURFACE ( 'NONE', #103, 2.805000000000000604, 2.000000000000000444 ) ;
#245 = FACE_OUTER_BOUND ( 'NONE', #237, .T. ) ;
#246 = EDGE_LOOP ( 'NONE', ( #284 ) ) ;
#247 = AXIS2_PLACEMENT_3D ( 'NONE', #239, #20, #303 ) ;
#248 = EDGE_LOOP ( 'NONE', ( #128 ) ) ;
#249 =( NAMED_UNIT ( * ) PLANE_ANGLE_UNIT ( ) SI_UNIT ( $, .RADIAN. ) );
#250 = DIRECTION ( 'NONE',  ( 0.0000000000000000000, 1.000000000000000000, 0.0000000000000000000 ) ) ;
#251 = PERSON_AND_ORGANIZATION ( #194, #81 ) ;
#252 = CARTESIAN_POINT ( 'NONE',  ( 2.793185071074506684E-14, 7.161352962210358035E-33, 8.000000000000000000 ) ) ;
#253 = AXIS2_PLACEMENT_3D ( 'NONE', #97, #231, #205 ) ;
#254 = CONICAL_SURFACE ( 'NONE', #102, 0.8049999999999991607, 0.5235987755982931535 ) ;
#255 = VERTEX_POINT ( 'NONE', #209 ) ;
#256 = CARTESIAN_POINT ( 'NONE',  ( 7.721941054645734412E-14, 1.499999999999994005, 22.11651819168628208 ) ) ;
#257 = CARTESIAN_POINT ( 'NONE',  ( 2.793185071074506684E-14, 7.161352962210358035E-33, 8.000000000000000000 ) ) ;
#258 = DIRECTION ( 'NONE',  ( 0.0000000000000000000, 0.0000000000000000000, 1.000000000000000000 ) ) ;
#259 = AXIS2_PLACEMENT_3D ( 'NONE', #225, #8, #250 ) ;
#260 = ORIENTED_EDGE ( 'NONE', *, *, #52, .T. ) ;
#261 = PERSON_AND_ORGANIZATION_ROLE ( 'design_owner' ) ;
#262 = DIRECTION ( 'NONE',  ( 0.0000000000000000000, 1.000000000000000000, 0.0000000000000000000 ) ) ;
#263 = PRODUCT_DEFINITION ( 'UNKNOWN', '', #157, #119 ) ;
#264 = FACE_OUTER_BOUND ( 'NONE', #217, .T. ) ;
#265 = ORIENTED_EDGE ( 'NONE', *, *, #290, .T. ) ;
#266 = CARTESIAN_POINT ( 'NONE',  ( 0.0000000000000000000, 0.0000000000000000000, 0.0000000000000000000 ) ) ;
#267 = COORDINATED_UNIVERSAL_TIME_OFFSET ( 1, 0, .AHEAD. ) ;
#268 = EDGE_CURVE ( 'NONE', #181, #181, #63, .T. ) ;
#269 = DIRECTION ( 'NONE',  ( 4.033361140077983990E-31, 1.000000000000000000, 1.135290232969115476E-16 ) ) ;
#270 = CARTESIAN_POINT ( 'NONE',  ( 1.745740669421566678E-13, -6.123233995736766085E-15, 50.00000000000000000 ) ) ;
#271 = CARTESIAN_POINT ( 'NONE',  ( 2.793185071074506684E-14, 0.9549999999999991829, 8.000000000000000000 ) ) ;
#272 = APPROVAL_STATUS ( 'not_yet_approved' ) ;
#273 = VERTEX_POINT ( 'NONE', #228 ) ;
#274 = EDGE_LOOP ( 'NONE', ( #260 ) ) ;
#275 = EDGE_LOOP ( 'NONE', ( #265 ) ) ;
#276 = CARTESIAN_POINT ( 'NONE',  ( 6.405924284287273902E-14, 0.8353844939755790122, 18.34729635533384240 ) ) ;
#277 = CARTESIAN_POINT ( 'NONE',  ( 1.735266225405037467E-13, -6.086494591762345225E-15, 49.70000000000000284 ) ) ;
#278 = DIRECTION ( 'NONE',  ( -3.491481338843133355E-15, 1.224646799147353207E-16, -1.000000000000000000 ) ) ;
#279 =( GEOMETRIC_REPRESENTATION_CONTEXT ( 3 ) GLOBAL_UNCERTAINTY_ASSIGNED_CONTEXT ( ( #241 ) ) GLOBAL_UNIT_ASSIGNED_CONTEXT ( ( #136, #249, #161 ) ) REPRESENTATION_CONTEXT ( 'NONE', 'WORKASPACE' ) );
#280 = PERSON_AND_ORGANIZATION ( #194, #81 ) ;
#281 = FACE_OUTER_BOUND ( 'NONE', #127, .T. ) ;
#282 = CIRCLE ( 'NONE', #145, 1.499999999999996669 ) ;
#283 = CYLINDRICAL_SURFACE ( 'NONE', #82, 0.9549999999999997380 ) ;
#284 = ORIENTED_EDGE ( 'NONE', *, *, #191, .F. ) ;
#285 = PLANE ( 'NONE',  #126 ) ;
#286 = DIRECTION ( 'NONE',  ( -3.491481338843133355E-15, 1.224646799147353207E-16, -1.000000000000000000 ) ) ;
#287 = ORIENTED_EDGE ( 'NONE', *, *, #76, .T. ) ;
#288 = ADVANCED_FACE ( 'NONE', ( #245, #1 ), #75, .T. ) ;
#289 = LOCAL_TIME ( 15, 4, 24.00000000000000000, #189 ) ;
#290 = EDGE_CURVE ( 'NONE', #180, #180, #175, .T. ) ;
#291 = CARTESIAN_POINT ( 'NONE',  ( 1.745740669421566678E-13, 1.199999999999995515, 50.00000000000000000 ) ) ;
#292 = APPROVAL_ROLE ( '' ) ;
#293 = CLOSED_SHELL ( 'NONE', ( #139, #104, #156, #133, #121, #288, #25, #130 ) ) ;
#294 = CC_DESIGN_APPROVAL ( #5, ( #263 ) ) ;
#295 = ORIENTED_EDGE ( 'NONE', *, *, #72, .T. ) ;
#296 = VERTEX_POINT ( 'NONE', #115 ) ;
#297 = PLANE ( 'NONE',  #199 ) ;
#298 = EDGE_LOOP ( 'NONE', ( #188 ) ) ;
#299 = DIRECTION ( 'NONE',  ( 4.275831445896958607E-31, 1.000000000000000000, 1.224646799147353207E-16 ) ) ;
#300 = APPROVAL_ROLE ( '' ) ;
#301 = DIRECTION ( 'NONE',  ( 3.491481338843133355E-15, -1.224646799147353207E-16, 1.000000000000000000 ) ) ;
#302 = DIRECTION ( 'NONE',  ( -3.491481338843133355E-15, 1.224646799147353207E-16, -1.000000000000000000 ) ) ;
#303 = DIRECTION ( 'NONE',  ( -4.275831445896958607E-31, -1.000000000000000000, -1.224646799147353207E-16 ) ) ;
ENDSEC;
END-ISO-10303-21;
