ISO-10303-21;
HEADER;
FILE_DESCRIPTION (( 'STEP AP203' ),
    '1' );
FILE_NAME ('965175.step',
    '2021-12-01T14:04:23',
    ( '' ),
    ( '' ),
    'SwSTEP 2.0',
    'SolidWorks 2019',
    '' );
FILE_SCHEMA (( 'CONFIG_CONTROL_DESIGN' ));
ENDSEC;

DATA;
#1 = APPROVAL_ROLE ( '' ) ;
#2 = ORIENTED_EDGE ( 'NONE', *, *, #255, .T. ) ;
#3 = CONICAL_SURFACE ( 'NONE', #214, 0.8049999999999991607, 0.5235987755982930425 ) ;
#4 = PRODUCT_DEFINITION ( 'UNKNOWN', '', #32, #280 ) ;
#5 = EDGE_LOOP ( 'NONE', ( #215 ) ) ;
#6 = CIRCLE ( 'NONE', #74, 1.200000000000001732 ) ;
#7 = DIRECTION ( 'NONE',  ( 0.0000000000000000000, 1.000000000000000000, 0.0000000000000000000 ) ) ;
#8 = EDGE_CURVE ( 'NONE', #168, #168, #176, .T. ) ;
#9 = PRODUCT_DEFINITION_SHAPE ( 'NONE', 'NONE',  #4 ) ;
#10 = CARTESIAN_POINT ( 'NONE',  ( 5.707628016518648493E-14, -2.001966415627278844E-15, 16.34729635533384595 ) ) ;
#11 = COORDINATED_UNIVERSAL_TIME_OFFSET ( 1, 0, .AHEAD. ) ;
#12 = APPLICATION_CONTEXT ( 'configuration controlled 3d designs of mechanical parts and assemblies' ) ;
#13 = CARTESIAN_POINT ( 'NONE',  ( 2.444036937190193349E-14, 6.036533125213964145E-33, 7.000000000000000000 ) ) ;
#14 = DIRECTION ( 'NONE',  ( 4.784919116490032355E-31, 1.000000000000000000, 1.346834996876404541E-16 ) ) ;
#15 = DIRECTION ( 'NONE',  ( -3.491481338843133355E-15, 1.224646799147353207E-16, -1.000000000000000000 ) ) ;
#16 = DIRECTION ( 'NONE',  ( 3.491481338843133355E-15, -1.224646799147353207E-16, 1.000000000000000000 ) ) ;
#17 = PRODUCT ( '965175', '965175', '', ( #235 ) ) ;
#18 = DATE_AND_TIME ( #127, #161 ) ;
#19 = VERTEX_POINT ( 'NONE', #169 ) ;
#20 = DIRECTION ( 'NONE',  ( -3.491481338843133355E-15, 1.224646799147353207E-16, -1.000000000000000000 ) ) ;
#21 = CARTESIAN_POINT ( 'NONE',  ( 0.0000000000000000000, 0.0000000000000000000, 0.0000000000000000000 ) ) ;
#22 = AXIS2_PLACEMENT_3D ( 'NONE', #106, #296, #57 ) ;
#23 =( NAMED_UNIT ( * ) PLANE_ANGLE_UNIT ( ) SI_UNIT ( $, .RADIAN. ) );
#24 = APPROVAL ( #173, 'UNSPECIFIED' ) ;
#25 = CC_DESIGN_PERSON_AND_ORGANIZATION_ASSIGNMENT ( #89, #241, ( #4 ) ) ;
#26 = EDGE_LOOP ( 'NONE', ( #94 ) ) ;
#27 = ORGANIZATION ( 'UNSPECIFIED', 'UNSPECIFIED', '' ) ;
#28 = FACE_OUTER_BOUND ( 'NONE', #264, .T. ) ;
#29 = COORDINATED_UNIVERSAL_TIME_OFFSET ( 1, 0, .AHEAD. ) ;
#30 = DIRECTION ( 'NONE',  ( -3.491481338843133355E-15, 1.224646799147353207E-16, -1.000000000000000000 ) ) ;
#31 = ORIENTED_EDGE ( 'NONE', *, *, #118, .T. ) ;
#32 = PRODUCT_DEFINITION_FORMATION_WITH_SPECIFIED_SOURCE ( 'ANY', '', #17, .NOT_KNOWN. ) ;
#33 = DIRECTION ( 'NONE',  ( -4.275831445896958607E-31, -1.000000000000000000, -1.224646799147353207E-16 ) ) ;
#34 = DIRECTION ( 'NONE',  ( 4.275831445896957731E-31, 1.000000000000000000, 1.224646799147352961E-16 ) ) ;
#35 = FACE_OUTER_BOUND ( 'NONE', #259, .T. ) ;
#36 = AXIS2_PLACEMENT_3D ( 'NONE', #162, #20, #64 ) ;
#37 = FACE_OUTER_BOUND ( 'NONE', #146, .T. ) ;
#38 = EDGE_CURVE ( 'NONE', #45, #45, #225, .T. ) ;
#39 = DATE_TIME_ROLE ( 'creation_date' ) ;
#40 = DIRECTION ( 'NONE',  ( -3.491481338843133355E-15, 1.224646799147353207E-16, -1.000000000000000000 ) ) ;
#41 = DIRECTION ( 'NONE',  ( 0.0000000000000000000, 1.000000000000000000, 0.0000000000000000000 ) ) ;
#42 = CALENDAR_DATE ( 2021, 1, 12 ) ;
#43 = CARTESIAN_POINT ( 'NONE',  ( 5.707628016518648493E-14, 0.7353844939755800336, 16.34729635533384595 ) ) ;
#44 = AXIS2_PLACEMENT_3D ( 'NONE', #266, #54, #78 ) ;
#45 = VERTEX_POINT ( 'NONE', #186 ) ;
#46 = LOCAL_TIME ( 15, 4, 23.00000000000000000, #29 ) ;
#47 = ADVANCED_FACE ( 'NONE', ( #28, #200 ), #97, .T. ) ;
#48 = ORIENTED_EDGE ( 'NONE', *, *, #119, .F. ) ;
#49 = ORIENTED_EDGE ( 'NONE', *, *, #72, .T. ) ;
#50 = AXIS2_PLACEMENT_3D ( 'NONE', #13, #246, #33 ) ;
#51 = APPROVAL_DATE_TIME ( #123, #24 ) ;
#52 = EDGE_LOOP ( 'NONE', ( #197 ) ) ;
#53 = ORIENTED_EDGE ( 'NONE', *, *, #8, .F. ) ;
#54 = DIRECTION ( 'NONE',  ( -3.491481338843133355E-15, 1.224646799147353207E-16, -1.000000000000000000 ) ) ;
#55 = CONICAL_SURFACE ( 'NONE', #22, 0.7049999999999990719, 0.5235987755982933756 ) ;
#56 = ADVANCED_FACE ( 'NONE', ( #100, #206 ), #105, .T. ) ;
#57 = DIRECTION ( 'NONE',  ( 0.0000000000000000000, 1.000000000000000000, 0.0000000000000000000 ) ) ;
#58 = FACE_OUTER_BOUND ( 'NONE', #236, .T. ) ;
#59 = DIRECTION ( 'NONE',  ( 0.0000000000000000000, 1.000000000000000000, 0.0000000000000000000 ) ) ;
#60 = AXIS2_PLACEMENT_3D ( 'NONE', #132, #40, #156 ) ;
#61 = PLANE ( 'NONE',  #289 ) ;
#62 = VERTEX_POINT ( 'NONE', #86 ) ;
#63 = PERSON_AND_ORGANIZATION ( #283, #27 ) ;
#64 = DIRECTION ( 'NONE',  ( 4.275831445896958607E-31, 1.000000000000000000, 1.224646799147353207E-16 ) ) ;
#65 =( LENGTH_UNIT ( ) NAMED_UNIT ( * ) SI_UNIT ( .MILLI., .METRE. ) );
#66 = CC_DESIGN_APPROVAL ( #24, ( #4 ) ) ;
#67 = APPROVAL ( #220, 'UNSPECIFIED' ) ;
#68 = FACE_BOUND ( 'NONE', #5, .T. ) ;
#69 = PERSON_AND_ORGANIZATION ( #283, #27 ) ;
#70 = ADVANCED_FACE ( 'NONE', ( #268 ), #61, .F. ) ;
#71 = ORIENTED_EDGE ( 'NONE', *, *, #72, .F. ) ;
#72 = EDGE_CURVE ( 'NONE', #142, #142, #208, .T. ) ;
#73 = ORIENTED_EDGE ( 'NONE', *, *, #258, .F. ) ;
#74 = AXIS2_PLACEMENT_3D ( 'NONE', #254, #87, #41 ) ;
#75 = EDGE_LOOP ( 'NONE', ( #175 ) ) ;
#76 = ORIENTED_EDGE ( 'NONE', *, *, #95, .F. ) ;
#77 = APPROVAL_ROLE ( '' ) ;
#78 = DIRECTION ( 'NONE',  ( 4.275831445896958607E-31, 1.000000000000000000, 1.224646799147353207E-16 ) ) ;
#79 = DIRECTION ( 'NONE',  ( 4.275831445896958607E-31, 1.000000000000000000, 1.224646799147353207E-16 ) ) ;
#80 = FACE_OUTER_BOUND ( 'NONE', #237, .T. ) ;
#81 = ADVANCED_FACE ( 'NONE', ( #205 ), #295, .F. ) ;
#82 = COORDINATED_UNIVERSAL_TIME_OFFSET ( 1, 0, .AHEAD. ) ;
#83 = DATE_AND_TIME ( #42, #198 ) ;
#84 = DIRECTION ( 'NONE',  ( -3.491481338843133355E-15, 1.224646799147353207E-16, -1.000000000000000000 ) ) ;
#85 = APPROVAL_STATUS ( 'not_yet_approved' ) ;
#86 = CARTESIAN_POINT ( 'NONE',  ( 2.444036937190193349E-14, 0.8049999999999991607, 7.000000000000000000 ) ) ;
#87 = DIRECTION ( 'NONE',  ( -3.491481338843133355E-15, 1.224646799147353207E-16, -1.000000000000000000 ) ) ;
#88 = CARTESIAN_POINT ( 'NONE',  ( 5.586370142149013368E-14, 0.7049999999999981837, 16.00000000000000000 ) ) ;
#89 = PERSON_AND_ORGANIZATION ( #283, #27 ) ;
#90 = EDGE_LOOP ( 'NONE', ( #31 ) ) ;
#91 = CIRCLE ( 'NONE', #185, 0.6606624327025947263 ) ;
#92 = ORIENTED_EDGE ( 'NONE', *, *, #118, .F. ) ;
#93 = CC_DESIGN_PERSON_AND_ORGANIZATION_ASSIGNMENT ( #250, #297, ( #286 ) ) ;
#94 = ORIENTED_EDGE ( 'NONE', *, *, #288, .T. ) ;
#95 = EDGE_CURVE ( 'NONE', #144, #144, #263, .T. ) ;
#96 = AXIS2_PLACEMENT_3D ( 'NONE', #21, #303, #170 ) ;
#97 = CYLINDRICAL_SURFACE ( 'NONE', #133, 1.499999999999999112 ) ;
#98 = AXIS2_PLACEMENT_3D ( 'NONE', #287, #147, #239 ) ;
#99 = EDGE_CURVE ( 'NONE', #62, #62, #281, .T. ) ;
#100 = FACE_OUTER_BOUND ( 'NONE', #195, .T. ) ;
#101 = DATE_TIME_ROLE ( 'classification_date' ) ;
#102 = ADVANCED_FACE ( 'NONE', ( #160, #80 ), #131, .T. ) ;
#103 = CARTESIAN_POINT ( 'NONE',  ( 5.586370142149013368E-14, -1.959434878635765131E-15, 16.00000000000000000 ) ) ;
#104 = CC_DESIGN_APPROVAL ( #67, ( #32 ) ) ;
#105 = CYLINDRICAL_SURFACE ( 'NONE', #174, 0.7049999999999996270 ) ;
#106 = CARTESIAN_POINT ( 'NONE',  ( 2.504511167915743751E-14, -8.784642641776459355E-16, 7.173205080756892116 ) ) ;
#107 = APPROVAL_ROLE ( '' ) ;
#108 = CARTESIAN_POINT ( 'NONE',  ( 1.735266225405037467E-13, -6.086494591762345225E-15, 49.70000000000000284 ) ) ;
#109 = CALENDAR_DATE ( 2021, 1, 12 ) ;
#110 = CARTESIAN_POINT ( 'NONE',  ( -2.824881204872537605E-31, 9.908349464828974562E-33, -8.090781335261361554E-17 ) ) ;
#111 = COORDINATED_UNIVERSAL_TIME_OFFSET ( 1, 0, .AHEAD. ) ;
#112 = PLANE ( 'NONE',  #230 ) ;
#113 = DIRECTION ( 'NONE',  ( -3.491481338843133355E-15, 1.224646799147353207E-16, -1.000000000000000000 ) ) ;
#114 = ADVANCED_FACE ( 'NONE', ( #221 ), #157, .T. ) ;
#115 = DIRECTION ( 'NONE',  ( 0.0000000000000000000, 1.000000000000000000, 0.0000000000000000000 ) ) ;
#116 =( GEOMETRIC_REPRESENTATION_CONTEXT ( 3 ) GLOBAL_UNCERTAINTY_ASSIGNED_CONTEXT ( ( #256 ) ) GLOBAL_UNIT_ASSIGNED_CONTEXT ( ( #65, #23, #276 ) ) REPRESENTATION_CONTEXT ( 'NONE', 'WORKASPACE' ) );
#117 = CARTESIAN_POINT ( 'NONE',  ( 1.745740669421566678E-13, 1.199999999999995515, 50.00000000000000000 ) ) ;
#118 = EDGE_CURVE ( 'NONE', #19, #19, #148, .T. ) ;
#119 = EDGE_CURVE ( 'NONE', #301, #301, #138, .T. ) ;
#120 = CARTESIAN_POINT ( 'NONE',  ( 0.0000000000000000000, 0.0000000000000000000, 0.0000000000000000000 ) ) ;
#121 = ADVANCED_FACE ( 'NONE', ( #270, #247 ), #3, .T. ) ;
#122 = ORIENTED_EDGE ( 'NONE', *, *, #95, .T. ) ;
#123 = DATE_AND_TIME ( #262, #46 ) ;
#124 = CARTESIAN_POINT ( 'NONE',  ( 2.444036937190193349E-14, -8.572527594031473190E-16, 7.000000000000000000 ) ) ;
#125 = EDGE_LOOP ( 'NONE', ( #122 ) ) ;
#126 = FACE_OUTER_BOUND ( 'NONE', #213, .T. ) ;
#127 = CALENDAR_DATE ( 2021, 1, 12 ) ;
#128 = DIRECTION ( 'NONE',  ( 0.0000000000000000000, -1.000000000000000000, 0.0000000000000000000 ) ) ;
#129 = APPROVAL ( #85, 'UNSPECIFIED' ) ;
#130 = CARTESIAN_POINT ( 'NONE',  ( 1.745740669421566678E-13, 8.998558695971067645E-33, 50.00000000000000000 ) ) ;
#131 = CONICAL_SURFACE ( 'NONE', #223, 1.499999999999996669, 0.1745329251994259812 ) ;
#132 = CARTESIAN_POINT ( 'NONE',  ( 2.444036937190193349E-14, -8.572527594031473190E-16, 7.000000000000000000 ) ) ;
#133 = AXIS2_PLACEMENT_3D ( 'NONE', #120, #224, #269 ) ;
#134 = ADVANCED_FACE ( 'NONE', ( #207, #126 ), #298, .T. ) ;
#135 = SHAPE_DEFINITION_REPRESENTATION ( #9, #229 ) ;
#136 = DIRECTION ( 'NONE',  ( 0.0000000000000000000, 1.000000000000000000, 0.0000000000000000000 ) ) ;
#137 = DIRECTION ( 'NONE',  ( -4.275831445896958607E-31, -1.000000000000000000, -1.224646799147353207E-16 ) ) ;
#138 = CIRCLE ( 'NONE', #167, 0.7050000000000000711 ) ;
#139 = DATE_AND_TIME ( #271, #233 ) ;
#140 = CC_DESIGN_PERSON_AND_ORGANIZATION_ASSIGNMENT ( #69, #194, ( #17 ) ) ;
#141 = PERSON_AND_ORGANIZATION_ROLE ( 'creator' ) ;
#142 = VERTEX_POINT ( 'NONE', #43 ) ;
#143 = CARTESIAN_POINT ( 'NONE',  ( 1.745740669421566678E-13, -6.123233995736766085E-15, 50.00000000000000000 ) ) ;
#144 = VERTEX_POINT ( 'NONE', #274 ) ;
#145 = CONICAL_SURFACE ( 'NONE', #293, 1.200000000000001732, 0.7853981633974453924 ) ;
#146 = EDGE_LOOP ( 'NONE', ( #217 ) ) ;
#147 = DIRECTION ( 'NONE',  ( -3.491481338843133355E-15, 1.224646799147353207E-16, -1.000000000000000000 ) ) ;
#148 = CIRCLE ( 'NONE', #267, 1.500000000000001554 ) ;
#149 = APPLICATION_PROTOCOL_DEFINITION ( 'international standard', 'config_control_design', 1994, #192 ) ;
#150 = CLOSED_SHELL ( 'NONE', ( #81, #153, #56, #158, #102, #47, #234, #70 ) ) ;
#151 = MANIFOLD_SOLID_BREP ( 'Corps-Déplacer/Copier1[1]', #150 ) ;
#152 = ORIENTED_EDGE ( 'NONE', *, *, #255, .F. ) ;
#153 = ADVANCED_FACE ( 'NONE', ( #37, #154 ), #55, .T. ) ;
#154 = FACE_BOUND ( 'NONE', #177, .T. ) ;
#155 = SECURITY_CLASSIFICATION_LEVEL ( 'unclassified' ) ;
#156 = DIRECTION ( 'NONE',  ( 0.0000000000000000000, 1.000000000000000000, 0.0000000000000000000 ) ) ;
#157 = PLANE ( 'NONE',  #50 ) ;
#158 = ADVANCED_FACE ( 'NONE', ( #58, #35 ), #302, .F. ) ;
#159 = CC_DESIGN_PERSON_AND_ORGANIZATION_ASSIGNMENT ( #179, #187, ( #32 ) ) ;
#160 = FACE_BOUND ( 'NONE', #290, .T. ) ;
#161 = LOCAL_TIME ( 15, 4, 23.00000000000000000, #275 ) ;
#162 = CARTESIAN_POINT ( 'NONE',  ( 5.586370142149013368E-14, -2.168404344971008868E-15, 16.00000000000000000 ) ) ;
#163 = DATE_AND_TIME ( #109, #238 ) ;
#164 = FACE_OUTER_BOUND ( 'NONE', #26, .T. ) ;
#165 = PERSON_AND_ORGANIZATION ( #283, #27 ) ;
#166 = DIRECTION ( 'NONE',  ( -3.491481338843133355E-15, 1.224646799147353207E-16, -1.000000000000000000 ) ) ;
#167 = AXIS2_PLACEMENT_3D ( 'NONE', #103, #202, #184 ) ;
#168 = VERTEX_POINT ( 'NONE', #232 ) ;
#169 = CARTESIAN_POINT ( 'NONE',  ( 1.735266225405037467E-13, 1.499999999999995559, 49.70000000000000284 ) ) ;
#170 = DIRECTION ( 'NONE',  ( 1.000000000000000000, 0.0000000000000000000, 0.0000000000000000000 ) ) ;
#171 = ORIENTED_EDGE ( 'NONE', *, *, #38, .F. ) ;
#172 = EDGE_LOOP ( 'NONE', ( #76 ) ) ;
#173 = APPROVAL_STATUS ( 'not_yet_approved' ) ;
#174 = AXIS2_PLACEMENT_3D ( 'NONE', #219, #15, #34 ) ;
#175 = ORIENTED_EDGE ( 'NONE', *, *, #288, .F. ) ;
#176 = CIRCLE ( 'NONE', #218, 0.8050000000000000488 ) ;
#177 = EDGE_LOOP ( 'NONE', ( #199 ) ) ;
#178 = DIRECTION ( 'NONE',  ( -4.275831445896958607E-31, -1.000000000000000000, -1.224646799147353207E-16 ) ) ;
#179 = PERSON_AND_ORGANIZATION ( #283, #27 ) ;
#180 = DIRECTION ( 'NONE',  ( -3.491481338843133355E-15, 1.224646799147353207E-16, -1.000000000000000000 ) ) ;
#181 = AXIS2_PLACEMENT_3D ( 'NONE', #226, #180, #14 ) ;
#182 = DIRECTION ( 'NONE',  ( -3.491481338843133355E-15, 1.224646799147353207E-16, -1.000000000000000000 ) ) ;
#183 = DIRECTION ( 'NONE',  ( 3.491481338843133355E-15, -1.224646799147353207E-16, 1.000000000000000000 ) ) ;
#184 = DIRECTION ( 'NONE',  ( 0.0000000000000000000, 1.000000000000000000, 0.0000000000000000000 ) ) ;
#185 = AXIS2_PLACEMENT_3D ( 'NONE', #110, #113, #211 ) ;
#186 = CARTESIAN_POINT ( 'NONE',  ( 2.504511167915743751E-14, 0.7049999999999981837, 7.173205080756892116 ) ) ;
#187 = PERSON_AND_ORGANIZATION_ROLE ( 'design_supplier' ) ;
#188 = PERSON_AND_ORGANIZATION ( #283, #27 ) ;
#189 = CARTESIAN_POINT ( 'NONE',  ( 0.0000000000000000000, 0.6606624327025947263, 0.0000000000000000000 ) ) ;
#190 = CC_DESIGN_DATE_AND_TIME_ASSIGNMENT ( #18, #101, ( #286 ) ) ;
#191 = AXIS2_PLACEMENT_3D ( 'NONE', #10, #201, #59 ) ;
#192 = APPLICATION_CONTEXT ( 'configuration controlled 3d designs of mechanical parts and assemblies' ) ;
#193 = VERTEX_POINT ( 'NONE', #231 ) ;
#194 = PERSON_AND_ORGANIZATION_ROLE ( 'design_owner' ) ;
#195 = EDGE_LOOP ( 'NONE', ( #171 ) ) ;
#196 = EDGE_LOOP ( 'NONE', ( #53 ) ) ;
#197 = ORIENTED_EDGE ( 'NONE', *, *, #119, .T. ) ;
#198 = LOCAL_TIME ( 15, 4, 23.00000000000000000, #111 ) ;
#199 = ORIENTED_EDGE ( 'NONE', *, *, #38, .T. ) ;
#200 = FACE_OUTER_BOUND ( 'NONE', #90, .T. ) ;
#201 = DIRECTION ( 'NONE',  ( -3.491481338843133355E-15, 1.224646799147353207E-16, -1.000000000000000000 ) ) ;
#202 = DIRECTION ( 'NONE',  ( -3.491481338843133355E-15, 1.224646799147353207E-16, -1.000000000000000000 ) ) ;
#203 = APPROVAL_PERSON_ORGANIZATION ( #279, #24, #1 ) ;
#204 = PRODUCT_RELATED_PRODUCT_CATEGORY ( 'detail', '', ( #17 ) ) ;
#205 = FACE_OUTER_BOUND ( 'NONE', #242, .T. ) ;
#206 = FACE_OUTER_BOUND ( 'NONE', #52, .T. ) ;
#207 = FACE_OUTER_BOUND ( 'NONE', #172, .T. ) ;
#208 = CIRCLE ( 'NONE', #191, 0.7353844939755819210 ) ;
#209 = CARTESIAN_POINT ( 'NONE',  ( -1.412440602436268802E-31, 4.954174732414487281E-33, -4.045390667630680777E-17 ) ) ;
#210 = APPLICATION_PROTOCOL_DEFINITION ( 'international standard', 'config_control_design', 1994, #12 ) ;
#211 = DIRECTION ( 'NONE',  ( 4.275831445896958607E-31, 1.000000000000000000, 1.224646799147352961E-16 ) ) ;
#212 = AXIS2_PLACEMENT_3D ( 'NONE', #278, #84, #253 ) ;
#213 = EDGE_LOOP ( 'NONE', ( #285 ) ) ;
#214 = AXIS2_PLACEMENT_3D ( 'NONE', #291, #16, #294 ) ;
#215 = ORIENTED_EDGE ( 'NONE', *, *, #258, .T. ) ;
#216 = APPROVAL_PERSON_ORGANIZATION ( #188, #67, #77 ) ;
#217 = ORIENTED_EDGE ( 'NONE', *, *, #99, .F. ) ;
#218 = AXIS2_PLACEMENT_3D ( 'NONE', #124, #30, #7 ) ;
#219 = CARTESIAN_POINT ( 'NONE',  ( 0.0000000000000000000, 0.0000000000000000000, 0.0000000000000000000 ) ) ;
#220 = APPROVAL_STATUS ( 'not_yet_approved' ) ;
#221 = FACE_OUTER_BOUND ( 'NONE', #196, .T. ) ;
#222 = DIRECTION ( 'NONE',  ( -3.491481338843133355E-15, 1.224646799147353207E-16, -1.000000000000000000 ) ) ;
#223 = AXIS2_PLACEMENT_3D ( 'NONE', #245, #183, #128 ) ;
#224 = DIRECTION ( 'NONE',  ( -3.491481338843133355E-15, 1.224646799147353207E-16, -1.000000000000000000 ) ) ;
#225 = CIRCLE ( 'NONE', #98, 0.7049999999999990719 ) ;
#226 = CARTESIAN_POINT ( 'NONE',  ( 8.728703347107831416E-16, -3.061616997868382402E-17, 0.2499999999999999445 ) ) ;
#227 = APPROVAL_DATE_TIME ( #139, #129 ) ;
#228 = VERTEX_POINT ( 'NONE', #189 ) ;
#229 = ADVANCED_BREP_SHAPE_REPRESENTATION ( '965175', ( #151, #249, #96 ), #116 ) ;
#230 = AXIS2_PLACEMENT_3D ( 'NONE', #209, #300, #137 ) ;
#231 = CARTESIAN_POINT ( 'NONE',  ( 7.221656533282272616E-14, 1.499999999999994005, 20.68364637364808090 ) ) ;
#232 = CARTESIAN_POINT ( 'NONE',  ( 2.444036937190193349E-14, 0.8049999999999991607, 7.000000000000000000 ) ) ;
#233 = LOCAL_TIME ( 15, 4, 23.00000000000000000, #82 ) ;
#234 = ADVANCED_FACE ( 'NONE', ( #272, #68 ), #145, .T. ) ;
#235 = MECHANICAL_CONTEXT ( 'NONE', #12, 'mechanical' ) ;
#236 = EDGE_LOOP ( 'NONE', ( #48 ) ) ;
#237 = EDGE_LOOP ( 'NONE', ( #2 ) ) ;
#238 = LOCAL_TIME ( 15, 4, 23.00000000000000000, #11 ) ;
#239 = DIRECTION ( 'NONE',  ( 0.0000000000000000000, 1.000000000000000000, 0.0000000000000000000 ) ) ;
#240 = CLOSED_SHELL ( 'NONE', ( #282, #121, #134, #114 ) ) ;
#241 = PERSON_AND_ORGANIZATION_ROLE ( 'creator' ) ;
#242 = EDGE_LOOP ( 'NONE', ( #260 ) ) ;
#243 = EDGE_LOOP ( 'NONE', ( #92 ) ) ;
#244 = CARTESIAN_POINT ( 'NONE',  ( 2.444036937190193349E-14, 6.036533125213964145E-33, 7.000000000000000000 ) ) ;
#245 = CARTESIAN_POINT ( 'NONE',  ( 7.221656533282272616E-14, -2.533016132618388493E-15, 20.68364637364808090 ) ) ;
#246 = DIRECTION ( 'NONE',  ( 3.491481338843133355E-15, -1.224646799147353207E-16, 1.000000000000000000 ) ) ;
#247 = FACE_OUTER_BOUND ( 'NONE', #125, .T. ) ;
#248 = DIRECTION ( 'NONE',  ( 3.491481338843133355E-15, -1.224646799147353207E-16, 1.000000000000000000 ) ) ;
#249 = MANIFOLD_SOLID_BREP ( 'Corps-Déplacer/Copier1[2]', #240 ) ;
#250 = PERSON_AND_ORGANIZATION ( #283, #27 ) ;
#251 = VERTEX_POINT ( 'NONE', #117 ) ;
#252 = APPROVAL_DATE_TIME ( #83, #67 ) ;
#253 = DIRECTION ( 'NONE',  ( 0.0000000000000000000, 1.000000000000000000, 0.0000000000000000000 ) ) ;
#254 = CARTESIAN_POINT ( 'NONE',  ( 1.745740669421566678E-13, -6.123233995736766085E-15, 50.00000000000000000 ) ) ;
#255 = EDGE_CURVE ( 'NONE', #193, #193, #292, .T. ) ;
#256 = UNCERTAINTY_MEASURE_WITH_UNIT (LENGTH_MEASURE( 1.000000000000000082E-05 ), #65, 'distance_accuracy_value', 'NONE');
#257 = CC_DESIGN_SECURITY_CLASSIFICATION ( #286, ( #32 ) ) ;
#258 = EDGE_CURVE ( 'NONE', #251, #251, #6, .T. ) ;
#259 = EDGE_LOOP ( 'NONE', ( #49 ) ) ;
#260 = ORIENTED_EDGE ( 'NONE', *, *, #99, .T. ) ;
#261 = CC_DESIGN_PERSON_AND_ORGANIZATION_ASSIGNMENT ( #165, #141, ( #32 ) ) ;
#262 = CALENDAR_DATE ( 2021, 1, 12 ) ;
#263 = CIRCLE ( 'NONE', #181, 0.8049999999999991607 ) ;
#264 = EDGE_LOOP ( 'NONE', ( #152 ) ) ;
#265 = EDGE_LOOP ( 'NONE', ( #73 ) ) ;
#266 = CARTESIAN_POINT ( 'NONE',  ( 0.0000000000000000000, 0.0000000000000000000, 0.0000000000000000000 ) ) ;
#267 = AXIS2_PLACEMENT_3D ( 'NONE', #108, #182, #136 ) ;
#268 = FACE_OUTER_BOUND ( 'NONE', #265, .T. ) ;
#269 = DIRECTION ( 'NONE',  ( 4.275831445896958607E-31, 1.000000000000000000, 1.224646799147353454E-16 ) ) ;
#270 = FACE_BOUND ( 'NONE', #75, .T. ) ;
#271 = CALENDAR_DATE ( 2021, 1, 12 ) ;
#272 = FACE_OUTER_BOUND ( 'NONE', #243, .T. ) ;
#273 = CC_DESIGN_APPROVAL ( #129, ( #286 ) ) ;
#274 = CARTESIAN_POINT ( 'NONE',  ( 8.728703347107835360E-16, 0.8049999999999991607, 0.2500000000000000555 ) ) ;
#275 = COORDINATED_UNIVERSAL_TIME_OFFSET ( 1, 0, .AHEAD. ) ;
#276 =( NAMED_UNIT ( * ) SI_UNIT ( $, .STERADIAN. ) SOLID_ANGLE_UNIT ( ) );
#277 = AXIS2_PLACEMENT_3D ( 'NONE', #244, #248, #178 ) ;
#278 = CARTESIAN_POINT ( 'NONE',  ( 7.221656533282272616E-14, -2.533016132618388493E-15, 20.68364637364808090 ) ) ;
#279 = PERSON_AND_ORGANIZATION ( #283, #27 ) ;
#280 = DESIGN_CONTEXT ( 'detailed design', #192, 'design' ) ;
#281 = CIRCLE ( 'NONE', #60, 0.8050000000000000488 ) ;
#282 = ADVANCED_FACE ( 'NONE', ( #164 ), #112, .F. ) ;
#283 = PERSON ( 'UNSPECIFIED', 'UNSPECIFIED', 'UNSPECIFIED', ('UNSPECIFIED'), ('UNSPECIFIED'), ('UNSPECIFIED') ) ;
#284 = CC_DESIGN_DATE_AND_TIME_ASSIGNMENT ( #163, #39, ( #4 ) ) ;
#285 = ORIENTED_EDGE ( 'NONE', *, *, #8, .T. ) ;
#286 = SECURITY_CLASSIFICATION ( '', '', #155 ) ;
#287 = CARTESIAN_POINT ( 'NONE',  ( 2.504511167915743751E-14, -8.784642641776459355E-16, 7.173205080756892116 ) ) ;
#288 = EDGE_CURVE ( 'NONE', #228, #228, #91, .T. ) ;
#289 = AXIS2_PLACEMENT_3D ( 'NONE', #130, #222, #79 ) ;
#290 = EDGE_LOOP ( 'NONE', ( #71 ) ) ;
#291 = CARTESIAN_POINT ( 'NONE',  ( 8.728703347107831416E-16, -3.061616997868382402E-17, 0.2499999999999999445 ) ) ;
#292 = CIRCLE ( 'NONE', #212, 1.499999999999996669 ) ;
#293 = AXIS2_PLACEMENT_3D ( 'NONE', #143, #166, #115 ) ;
#294 = DIRECTION ( 'NONE',  ( -4.784919116490032355E-31, -1.000000000000000000, -1.346834996876404541E-16 ) ) ;
#295 = PLANE ( 'NONE',  #277 ) ;
#296 = DIRECTION ( 'NONE',  ( -3.491481338843133355E-15, 1.224646799147353207E-16, -1.000000000000000000 ) ) ;
#297 = PERSON_AND_ORGANIZATION_ROLE ( 'classification_officer' ) ;
#298 = CYLINDRICAL_SURFACE ( 'NONE', #44, 0.8049999999999996048 ) ;
#299 = APPROVAL_PERSON_ORGANIZATION ( #63, #129, #107 ) ;
#300 = DIRECTION ( 'NONE',  ( 3.491481338843133355E-15, -1.224646799147353207E-16, 1.000000000000000000 ) ) ;
#301 = VERTEX_POINT ( 'NONE', #88 ) ;
#302 = TOROIDAL_SURFACE ( 'NONE', #36, 2.705000000000000515, 2.000000000000000000 ) ;
#303 = DIRECTION ( 'NONE',  ( 0.0000000000000000000, 0.0000000000000000000, 1.000000000000000000 ) ) ;
ENDSEC;
END-ISO-10303-21;
