ISO-10303-21;
HEADER;
FILE_DESCRIPTION (( 'STEP AP203' ),
    '1' );
FILE_NAME ('965174.step',
    '2021-12-01T14:04:22',
    ( '' ),
    ( '' ),
    'SwSTEP 2.0',
    'SolidWorks 2019',
    '' );
FILE_SCHEMA (( 'CONFIG_CONTROL_DESIGN' ));
ENDSEC;

DATA;
#1 = DIRECTION ( 'NONE',  ( 0.0000000000000000000, 1.000000000000000000, 0.0000000000000000000 ) ) ;
#2 = FACE_BOUND ( 'NONE', #236, .T. ) ;
#3 = DIRECTION ( 'NONE',  ( 0.0000000000000000000, 1.000000000000000000, 0.0000000000000000000 ) ) ;
#4 = AXIS2_PLACEMENT_3D ( 'NONE', #283, #120, #281 ) ;
#5 = EDGE_CURVE ( 'NONE', #32, #32, #95, .T. ) ;
#6 = PLANE ( 'NONE',  #11 ) ;
#7 = CARTESIAN_POINT ( 'NONE',  ( -2.337429358398365095E-31, 8.198598543688845568E-33, -6.694663758887076186E-17 ) ) ;
#8 = APPROVAL_PERSON_ORGANIZATION ( #155, #99, #135 ) ;
#9 = DIRECTION ( 'NONE',  ( 4.275831445896958607E-31, 1.000000000000000000, 1.224646799147353454E-16 ) ) ;
#10 = ADVANCED_FACE ( 'NONE', ( #71, #115 ), #214, .T. ) ;
#11 = AXIS2_PLACEMENT_3D ( 'NONE', #218, #49, #30 ) ;
#12 = PERSON_AND_ORGANIZATION_ROLE ( 'classification_officer' ) ;
#13 = ORIENTED_EDGE ( 'NONE', *, *, #72, .T. ) ;
#14 = EDGE_CURVE ( 'NONE', #125, #125, #273, .T. ) ;
#15 = EDGE_LOOP ( 'NONE', ( #85 ) ) ;
#16 = PERSON_AND_ORGANIZATION_ROLE ( 'creator' ) ;
#17 = CARTESIAN_POINT ( 'NONE',  ( -4.674858716796730190E-31, 1.639719708737769114E-32, -1.338932751777415237E-16 ) ) ;
#18 = EDGE_CURVE ( 'NONE', #98, #98, #223, .T. ) ;
#19 = APPROVAL_DATE_TIME ( #163, #99 ) ;
#20 = ORIENTED_EDGE ( 'NONE', *, *, #259, .F. ) ;
#21 = DIRECTION ( 'NONE',  ( 0.0000000000000000000, 1.000000000000000000, 0.0000000000000000000 ) ) ;
#22 = EDGE_CURVE ( 'NONE', #216, #216, #208, .T. ) ;
#23 = EDGE_LOOP ( 'NONE', ( #58 ) ) ;
#24 = CC_DESIGN_APPROVAL ( #99, ( #127 ) ) ;
#25 = AXIS2_PLACEMENT_3D ( 'NONE', #7, #243, #170 ) ;
#26 = DIRECTION ( 'NONE',  ( -4.275831445896958607E-31, -1.000000000000000000, -1.224646799147353207E-16 ) ) ;
#27 = ADVANCED_FACE ( 'NONE', ( #166, #118 ), #88, .T. ) ;
#28 = FACE_OUTER_BOUND ( 'NONE', #23, .T. ) ;
#29 = CARTESIAN_POINT ( 'NONE',  ( 0.0000000000000000000, 0.0000000000000000000, 0.0000000000000000000 ) ) ;
#30 = DIRECTION ( 'NONE',  ( 4.275831445896958607E-31, 1.000000000000000000, 1.224646799147353207E-16 ) ) ;
#31 = CARTESIAN_POINT ( 'NONE',  ( 2.444036937190193349E-14, 0.7949999999999991518, 7.000000000000000000 ) ) ;
#32 = VERTEX_POINT ( 'NONE', #31 ) ;
#33 = PERSON_AND_ORGANIZATION ( #167, #178 ) ;
#34 = EDGE_LOOP ( 'NONE', ( #233 ) ) ;
#35 = DATE_TIME_ROLE ( 'classification_date' ) ;
#36 = EDGE_LOOP ( 'NONE', ( #13 ) ) ;
#37 = CONICAL_SURFACE ( 'NONE', #196, 0.7949999999999991518, 0.5235987755982925984 ) ;
#38 = CC_DESIGN_DATE_AND_TIME_ASSIGNMENT ( #225, #228, ( #272 ) ) ;
#39 = DIRECTION ( 'NONE',  ( -3.491481338843133355E-15, 1.224646799147353207E-16, -1.000000000000000000 ) ) ;
#40 = LOCAL_TIME ( 15, 4, 22.00000000000000000, #250 ) ;
#41 = DIRECTION ( 'NONE',  ( 0.0000000000000000000, 1.000000000000000000, 0.0000000000000000000 ) ) ;
#42 = DIRECTION ( 'NONE',  ( -3.491481338843133355E-15, 1.224646799147353207E-16, -1.000000000000000000 ) ) ;
#43 = ADVANCED_FACE ( 'NONE', ( #258 ), #67, .T. ) ;
#44 = EDGE_LOOP ( 'NONE', ( #156 ) ) ;
#45 = CARTESIAN_POINT ( 'NONE',  ( 1.745740669421566678E-13, -6.123233995736766085E-15, 50.00000000000000000 ) ) ;
#46 = CC_DESIGN_APPROVAL ( #105, ( #217 ) ) ;
#47 = AXIS2_PLACEMENT_3D ( 'NONE', #45, #89, #41 ) ;
#48 = AXIS2_PLACEMENT_3D ( 'NONE', #148, #219, #149 ) ;
#49 = DIRECTION ( 'NONE',  ( -3.491481338843133355E-15, 1.224646799147353207E-16, -1.000000000000000000 ) ) ;
#50 = DIRECTION ( 'NONE',  ( -4.845106778332673594E-31, -1.000000000000000000, -1.363776317591830823E-16 ) ) ;
#51 = FACE_OUTER_BOUND ( 'NONE', #68, .T. ) ;
#52 = LOCAL_TIME ( 15, 4, 22.00000000000000000, #110 ) ;
#53 = CARTESIAN_POINT ( 'NONE',  ( 1.745740669421566678E-13, -6.123233995736766085E-15, 50.00000000000000000 ) ) ;
#54 = CLOSED_SHELL ( 'NONE', ( #60, #64, #257, #244, #189, #138, #10, #172 ) ) ;
#55 = VERTEX_POINT ( 'NONE', #145 ) ;
#56 =( NAMED_UNIT ( * ) PLANE_ANGLE_UNIT ( ) SI_UNIT ( $, .RADIAN. ) );
#57 = APPROVAL_ROLE ( '' ) ;
#58 = ORIENTED_EDGE ( 'NONE', *, *, #220, .T. ) ;
#59 = APPLICATION_PROTOCOL_DEFINITION ( 'international standard', 'config_control_design', 1994, #265 ) ;
#60 = ADVANCED_FACE ( 'NONE', ( #140 ), #143, .F. ) ;
#61 = APPROVAL_STATUS ( 'not_yet_approved' ) ;
#62 = PERSON_AND_ORGANIZATION_ROLE ( 'creator' ) ;
#63 = CIRCLE ( 'NONE', #229, 0.6506624327025947174 ) ;
#64 = ADVANCED_FACE ( 'NONE', ( #168, #211 ), #153, .T. ) ;
#65 = EDGE_LOOP ( 'NONE', ( #185 ) ) ;
#66 = DIRECTION ( 'NONE',  ( -4.275831445896958607E-31, -1.000000000000000000, -1.224646799147353207E-16 ) ) ;
#67 = PLANE ( 'NONE',  #264 ) ;
#68 = EDGE_LOOP ( 'NONE', ( #260 ) ) ;
#69 = EDGE_CURVE ( 'NONE', #195, #195, #285, .T. ) ;
#70 = CARTESIAN_POINT ( 'NONE',  ( 2.444036937190193349E-14, 5.961545136080871401E-33, 7.000000000000000000 ) ) ;
#71 = FACE_OUTER_BOUND ( 'NONE', #177, .T. ) ;
#72 = EDGE_CURVE ( 'NONE', #270, #270, #63, .T. ) ;
#73 = AXIS2_PLACEMENT_3D ( 'NONE', #91, #186, #280 ) ;
#74 = CARTESIAN_POINT ( 'NONE',  ( 5.237222008264700033E-14, -1.734723475976807094E-15, 15.00000000000000000 ) ) ;
#75 = CC_DESIGN_PERSON_AND_ORGANIZATION_ASSIGNMENT ( #158, #81, ( #217 ) ) ;
#76 = DIRECTION ( 'NONE',  ( -3.491481338843133355E-15, 1.224646799147353207E-16, -1.000000000000000000 ) ) ;
#77 = CARTESIAN_POINT ( 'NONE',  ( 8.728703347107831416E-16, -3.061616997868382402E-17, 0.2499999999999999445 ) ) ;
#78 = CARTESIAN_POINT ( 'NONE',  ( 5.237222008264700033E-14, 0.6949999999999981748, 15.00000000000000000 ) ) ;
#79 = TOROIDAL_SURFACE ( 'NONE', #134, 2.694999999999999840, 2.000000000000000000 ) ;
#80 = CARTESIAN_POINT ( 'NONE',  ( 2.504511167915743751E-14, 0.6949999999999981748, 7.173205080756892116 ) ) ;
#81 = PERSON_AND_ORGANIZATION_ROLE ( 'design_supplier' ) ;
#82 = CALENDAR_DATE ( 2021, 1, 12 ) ;
#83 = VERTEX_POINT ( 'NONE', #152 ) ;
#84 = CARTESIAN_POINT ( 'NONE',  ( 1.745740669421566678E-13, 1.199999999999995515, 50.00000000000000000 ) ) ;
#85 = ORIENTED_EDGE ( 'NONE', *, *, #275, .F. ) ;
#86 = AXIS2_PLACEMENT_3D ( 'NONE', #164, #282, #303 ) ;
#87 = EDGE_LOOP ( 'NONE', ( #278 ) ) ;
#88 = CYLINDRICAL_SURFACE ( 'NONE', #73, 0.7949999999999995959 ) ;
#89 = DIRECTION ( 'NONE',  ( -3.491481338843133355E-15, 1.224646799147353207E-16, -1.000000000000000000 ) ) ;
#90 = CIRCLE ( 'NONE', #184, 1.500000000000001554 ) ;
#91 = CARTESIAN_POINT ( 'NONE',  ( 0.0000000000000000000, 0.0000000000000000000, 0.0000000000000000000 ) ) ;
#92 = ORIENTED_EDGE ( 'NONE', *, *, #259, .T. ) ;
#93 = UNCERTAINTY_MEASURE_WITH_UNIT (LENGTH_MEASURE( 1.000000000000000082E-05 ), #129, 'distance_accuracy_value', 'NONE');
#94 = FACE_OUTER_BOUND ( 'NONE', #87, .T. ) ;
#95 = CIRCLE ( 'NONE', #301, 0.7950000000000000400 ) ;
#96 = DIRECTION ( 'NONE',  ( 3.491481338843133355E-15, -1.224646799147353207E-16, 1.000000000000000000 ) ) ;
#97 = FACE_OUTER_BOUND ( 'NONE', #36, .T. ) ;
#98 = VERTEX_POINT ( 'NONE', #289 ) ;
#99 = APPROVAL ( #252, 'UNSPECIFIED' ) ;
#100 = DIRECTION ( 'NONE',  ( -3.491481338843133355E-15, 1.224646799147353207E-16, -1.000000000000000000 ) ) ;
#101 = AXIS2_PLACEMENT_3D ( 'NONE', #279, #256, #3 ) ;
#102 = DIRECTION ( 'NONE',  ( 0.0000000000000000000, 0.0000000000000000000, 1.000000000000000000 ) ) ;
#103 = ORIENTED_EDGE ( 'NONE', *, *, #5, .T. ) ;
#104 = EDGE_CURVE ( 'NONE', #55, #55, #240, .T. ) ;
#105 = APPROVAL ( #226, 'UNSPECIFIED' ) ;
#106 = DATE_AND_TIME ( #181, #40 ) ;
#107 = EDGE_LOOP ( 'NONE', ( #213 ) ) ;
#108 = APPROVAL_ROLE ( '' ) ;
#109 = ORIENTED_EDGE ( 'NONE', *, *, #72, .F. ) ;
#110 = COORDINATED_UNIVERSAL_TIME_OFFSET ( 1, 0, .AHEAD. ) ;
#111 = ORIENTED_EDGE ( 'NONE', *, *, #220, .F. ) ;
#112 = DIRECTION ( 'NONE',  ( -3.491481338843133355E-15, 1.224646799147353207E-16, -1.000000000000000000 ) ) ;
#113 = EDGE_LOOP ( 'NONE', ( #20 ) ) ;
#114 = ADVANCED_FACE ( 'NONE', ( #97 ), #221, .F. ) ;
#115 = FACE_BOUND ( 'NONE', #207, .T. ) ;
#116 = CC_DESIGN_PERSON_AND_ORGANIZATION_ASSIGNMENT ( #274, #12, ( #127 ) ) ;
#117 = AXIS2_PLACEMENT_3D ( 'NONE', #176, #102, #248 ) ;
#118 = FACE_OUTER_BOUND ( 'NONE', #44, .T. ) ;
#119 = AXIS2_PLACEMENT_3D ( 'NONE', #173, #100, #197 ) ;
#120 = DIRECTION ( 'NONE',  ( -3.491481338843133355E-15, 1.224646799147353207E-16, -1.000000000000000000 ) ) ;
#121 = DIRECTION ( 'NONE',  ( 4.275831445896958607E-31, 1.000000000000000000, 1.224646799147353207E-16 ) ) ;
#122 = PRODUCT_RELATED_PRODUCT_CATEGORY ( 'detail', '', ( #201 ) ) ;
#123 = DIRECTION ( 'NONE',  ( -3.491481338843133355E-15, 1.224646799147353207E-16, -1.000000000000000000 ) ) ;
#124 = FACE_BOUND ( 'NONE', #107, .T. ) ;
#125 = VERTEX_POINT ( 'NONE', #80 ) ;
#126 = DIRECTION ( 'NONE',  ( -3.491481338843133355E-15, 1.224646799147353207E-16, -1.000000000000000000 ) ) ;
#127 = SECURITY_CLASSIFICATION ( '', '', #293 ) ;
#128 = AXIS2_PLACEMENT_3D ( 'NONE', #70, #234, #66 ) ;
#129 =( LENGTH_UNIT ( ) NAMED_UNIT ( * ) SI_UNIT ( .MILLI., .METRE. ) );
#130 = PRODUCT_DEFINITION_SHAPE ( 'NONE', 'NONE',  #272 ) ;
#131 = COORDINATED_UNIVERSAL_TIME_OFFSET ( 1, 0, .AHEAD. ) ;
#132 = ADVANCED_FACE ( 'NONE', ( #2, #267 ), #37, .T. ) ;
#133 = PERSON_AND_ORGANIZATION ( #167, #178 ) ;
#134 = AXIS2_PLACEMENT_3D ( 'NONE', #74, #174, #121 ) ;
#135 = APPROVAL_ROLE ( '' ) ;
#136 = CARTESIAN_POINT ( 'NONE',  ( 2.504511167915743751E-14, -8.784642641776459355E-16, 7.173205080756892116 ) ) ;
#137 = SHAPE_DEFINITION_REPRESENTATION ( #130, #251 ) ;
#138 = ADVANCED_FACE ( 'NONE', ( #171, #28 ), #150, .T. ) ;
#139 = EDGE_LOOP ( 'NONE', ( #230 ) ) ;
#140 = FACE_OUTER_BOUND ( 'NONE', #204, .T. ) ;
#141 = DIRECTION ( 'NONE',  ( 0.0000000000000000000, 1.000000000000000000, 0.0000000000000000000 ) ) ;
#142 = MANIFOLD_SOLID_BREP ( 'Corps-Déplacer/Copier1[1]', #54 ) ;
#143 = PLANE ( 'NONE',  #128 ) ;
#144 = MANIFOLD_SOLID_BREP ( 'Corps-Déplacer/Copier1[2]', #268 ) ;
#145 = CARTESIAN_POINT ( 'NONE',  ( 2.444036937190193349E-14, 0.7949999999999991518, 7.000000000000000000 ) ) ;
#146 = FACE_OUTER_BOUND ( 'NONE', #15, .T. ) ;
#147 = APPROVAL_PERSON_ORGANIZATION ( #133, #202, #57 ) ;
#148 = CARTESIAN_POINT ( 'NONE',  ( 6.892309574038474885E-14, -2.417496769831110922E-15, 19.74035919184426291 ) ) ;
#149 = DIRECTION ( 'NONE',  ( 0.0000000000000000000, -1.000000000000000000, 0.0000000000000000000 ) ) ;
#150 = CYLINDRICAL_SURFACE ( 'NONE', #302, 1.499999999999998890 ) ;
#151 = CALENDAR_DATE ( 2021, 1, 12 ) ;
#152 = CARTESIAN_POINT ( 'NONE',  ( 8.728703347107835360E-16, 0.7949999999999991518, 0.2500000000000000555 ) ) ;
#153 = CONICAL_SURFACE ( 'NONE', #4, 0.6949999999999989519, 0.5235987755982933756 ) ;
#154 = PERSON_AND_ORGANIZATION ( #167, #178 ) ;
#155 = PERSON_AND_ORGANIZATION ( #167, #178 ) ;
#156 = ORIENTED_EDGE ( 'NONE', *, *, #104, .T. ) ;
#157 = APPROVAL_PERSON_ORGANIZATION ( #271, #105, #108 ) ;
#158 = PERSON_AND_ORGANIZATION ( #167, #178 ) ;
#159 = AXIS2_PLACEMENT_3D ( 'NONE', #53, #192, #245 ) ;
#160 = EDGE_LOOP ( 'NONE', ( #92 ) ) ;
#161 = CC_DESIGN_PERSON_AND_ORGANIZATION_ASSIGNMENT ( #154, #16, ( #272 ) ) ;
#162 = EDGE_LOOP ( 'NONE', ( #253 ) ) ;
#163 = DATE_AND_TIME ( #238, #288 ) ;
#164 = CARTESIAN_POINT ( 'NONE',  ( 5.237222008264700033E-14, -1.836970198721029589E-15, 15.00000000000000000 ) ) ;
#165 = COORDINATED_UNIVERSAL_TIME_OFFSET ( 1, 0, .AHEAD. ) ;
#166 = FACE_OUTER_BOUND ( 'NONE', #113, .T. ) ;
#167 = PERSON ( 'UNSPECIFIED', 'UNSPECIFIED', 'UNSPECIFIED', ('UNSPECIFIED'), ('UNSPECIFIED'), ('UNSPECIFIED') ) ;
#168 = FACE_OUTER_BOUND ( 'NONE', #162, .T. ) ;
#169 = DIRECTION ( 'NONE',  ( -3.491481338843133355E-15, 1.224646799147353207E-16, -1.000000000000000000 ) ) ;
#170 = DIRECTION ( 'NONE',  ( -4.275831445896958607E-31, -1.000000000000000000, -1.224646799147353207E-16 ) ) ;
#171 = FACE_OUTER_BOUND ( 'NONE', #34, .T. ) ;
#172 = ADVANCED_FACE ( 'NONE', ( #146 ), #6, .F. ) ;
#173 = CARTESIAN_POINT ( 'NONE',  ( 8.728703347107831416E-16, -3.061616997868382402E-17, 0.2499999999999999445 ) ) ;
#174 = DIRECTION ( 'NONE',  ( -3.491481338843133355E-15, 1.224646799147353207E-16, -1.000000000000000000 ) ) ;
#175 = CALENDAR_DATE ( 2021, 1, 12 ) ;
#176 = CARTESIAN_POINT ( 'NONE',  ( 0.0000000000000000000, 0.0000000000000000000, 0.0000000000000000000 ) ) ;
#177 = EDGE_LOOP ( 'NONE', ( #111 ) ) ;
#178 = ORGANIZATION ( 'UNSPECIFIED', 'UNSPECIFIED', '' ) ;
#179 = DATE_AND_TIME ( #82, #212 ) ;
#180 = AXIS2_PLACEMENT_3D ( 'NONE', #215, #39, #232 ) ;
#181 = CALENDAR_DATE ( 2021, 1, 12 ) ;
#182 = PERSON_AND_ORGANIZATION_ROLE ( 'design_owner' ) ;
#183 = AXIS2_PLACEMENT_3D ( 'NONE', #136, #112, #1 ) ;
#184 = AXIS2_PLACEMENT_3D ( 'NONE', #291, #76, #222 ) ;
#185 = ORIENTED_EDGE ( 'NONE', *, *, #14, .T. ) ;
#186 = DIRECTION ( 'NONE',  ( -3.491481338843133355E-15, 1.224646799147353207E-16, -1.000000000000000000 ) ) ;
#187 =( GEOMETRIC_REPRESENTATION_CONTEXT ( 3 ) GLOBAL_UNCERTAINTY_ASSIGNED_CONTEXT ( ( #93 ) ) GLOBAL_UNIT_ASSIGNED_CONTEXT ( ( #129, #56, #292 ) ) REPRESENTATION_CONTEXT ( 'NONE', 'WORKASPACE' ) );
#188 = DIRECTION ( 'NONE',  ( 3.491481338843133355E-15, -1.224646799147353207E-16, 1.000000000000000000 ) ) ;
#189 = ADVANCED_FACE ( 'NONE', ( #124, #193 ), #269, .T. ) ;
#190 = CARTESIAN_POINT ( 'NONE',  ( 2.444036937190193349E-14, 5.961545136080871401E-33, 7.000000000000000000 ) ) ;
#191 = DESIGN_CONTEXT ( 'detailed design', #265, 'design' ) ;
#192 = DIRECTION ( 'NONE',  ( -3.491481338843133355E-15, 1.224646799147353207E-16, -1.000000000000000000 ) ) ;
#193 = FACE_OUTER_BOUND ( 'NONE', #255, .T. ) ;
#194 = CARTESIAN_POINT ( 'NONE',  ( 0.0000000000000000000, 0.0000000000000000000, 0.0000000000000000000 ) ) ;
#195 = VERTEX_POINT ( 'NONE', #241 ) ;
#196 = AXIS2_PLACEMENT_3D ( 'NONE', #77, #96, #50 ) ;
#197 = DIRECTION ( 'NONE',  ( 4.845106778332673594E-31, 1.000000000000000000, 1.363776317591830823E-16 ) ) ;
#198 = COORDINATED_UNIVERSAL_TIME_OFFSET ( 1, 0, .AHEAD. ) ;
#199 = LOCAL_TIME ( 15, 4, 22.00000000000000000, #131 ) ;
#200 = ORIENTED_EDGE ( 'NONE', *, *, #104, .F. ) ;
#201 = PRODUCT ( '965174', '965174', '', ( #206 ) ) ;
#202 = APPROVAL ( #61, 'UNSPECIFIED' ) ;
#203 = PERSON_AND_ORGANIZATION ( #167, #178 ) ;
#204 = EDGE_LOOP ( 'NONE', ( #103 ) ) ;
#205 = APPLICATION_PROTOCOL_DEFINITION ( 'international standard', 'config_control_design', 1994, #249 ) ;
#206 = MECHANICAL_CONTEXT ( 'NONE', #249, 'mechanical' ) ;
#207 = EDGE_LOOP ( 'NONE', ( #227 ) ) ;
#208 = CIRCLE ( 'NONE', #86, 0.6949999999999999512 ) ;
#209 = DIRECTION ( 'NONE',  ( -3.491481338843133355E-15, 1.224646799147353207E-16, -1.000000000000000000 ) ) ;
#210 = ORIENTED_EDGE ( 'NONE', *, *, #22, .T. ) ;
#211 = FACE_BOUND ( 'NONE', #65, .T. ) ;
#212 = LOCAL_TIME ( 15, 4, 22.00000000000000000, #198 ) ;
#213 = ORIENTED_EDGE ( 'NONE', *, *, #69, .F. ) ;
#214 = CONICAL_SURFACE ( 'NONE', #47, 1.200000000000001732, 0.7853981633974453924 ) ;
#215 = CARTESIAN_POINT ( 'NONE',  ( 5.358479882634336420E-14, -1.879501735712543696E-15, 15.34729635533384773 ) ) ;
#216 = VERTEX_POINT ( 'NONE', #78 ) ;
#217 = PRODUCT_DEFINITION_FORMATION_WITH_SPECIFIED_SOURCE ( 'ANY', '', #201, .NOT_KNOWN. ) ;
#218 = CARTESIAN_POINT ( 'NONE',  ( 1.745740669421566678E-13, 8.998558695971067645E-33, 50.00000000000000000 ) ) ;
#219 = DIRECTION ( 'NONE',  ( 3.491481338843133355E-15, -1.224646799147353207E-16, 1.000000000000000000 ) ) ;
#220 = EDGE_CURVE ( 'NONE', #246, #246, #90, .T. ) ;
#221 = PLANE ( 'NONE',  #25 ) ;
#222 = DIRECTION ( 'NONE',  ( 0.0000000000000000000, 1.000000000000000000, 0.0000000000000000000 ) ) ;
#223 = CIRCLE ( 'NONE', #296, 1.499999999999996447 ) ;
#224 = CIRCLE ( 'NONE', #119, 0.7949999999999991518 ) ;
#225 = DATE_AND_TIME ( #151, #52 ) ;
#226 = APPROVAL_STATUS ( 'not_yet_approved' ) ;
#227 = ORIENTED_EDGE ( 'NONE', *, *, #275, .T. ) ;
#228 = DATE_TIME_ROLE ( 'creation_date' ) ;
#229 = AXIS2_PLACEMENT_3D ( 'NONE', #17, #209, #297 ) ;
#230 = ORIENTED_EDGE ( 'NONE', *, *, #69, .T. ) ;
#231 = DATE_AND_TIME ( #175, #199 ) ;
#232 = DIRECTION ( 'NONE',  ( 0.0000000000000000000, 1.000000000000000000, 0.0000000000000000000 ) ) ;
#233 = ORIENTED_EDGE ( 'NONE', *, *, #18, .F. ) ;
#234 = DIRECTION ( 'NONE',  ( 3.491481338843133355E-15, -1.224646799147353207E-16, 1.000000000000000000 ) ) ;
#235 = CC_DESIGN_PERSON_AND_ORGANIZATION_ASSIGNMENT ( #203, #62, ( #217 ) ) ;
#236 = EDGE_LOOP ( 'NONE', ( #109 ) ) ;
#237 = CC_DESIGN_DATE_AND_TIME_ASSIGNMENT ( #179, #35, ( #127 ) ) ;
#238 = CALENDAR_DATE ( 2021, 1, 12 ) ;
#239 = EDGE_LOOP ( 'NONE', ( #200 ) ) ;
#240 = CIRCLE ( 'NONE', #101, 0.7950000000000000400 ) ;
#241 = CARTESIAN_POINT ( 'NONE',  ( 5.358479882634336420E-14, 0.7253844939755804688, 15.34729635533384773 ) ) ;
#242 = FACE_OUTER_BOUND ( 'NONE', #299, .T. ) ;
#243 = DIRECTION ( 'NONE',  ( 3.491481338843133355E-15, -1.224646799147353207E-16, 1.000000000000000000 ) ) ;
#244 = ADVANCED_FACE ( 'NONE', ( #94, #286 ), #79, .F. ) ;
#245 = DIRECTION ( 'NONE',  ( 0.0000000000000000000, 1.000000000000000000, 0.0000000000000000000 ) ) ;
#246 = VERTEX_POINT ( 'NONE', #284 ) ;
#247 = CC_DESIGN_SECURITY_CLASSIFICATION ( #127, ( #217 ) ) ;
#248 = DIRECTION ( 'NONE',  ( 1.000000000000000000, 0.0000000000000000000, 0.0000000000000000000 ) ) ;
#249 = APPLICATION_CONTEXT ( 'configuration controlled 3d designs of mechanical parts and assemblies' ) ;
#250 = COORDINATED_UNIVERSAL_TIME_OFFSET ( 1, 0, .AHEAD. ) ;
#251 = ADVANCED_BREP_SHAPE_REPRESENTATION ( '965174', ( #142, #144, #117 ), #187 ) ;
#252 = APPROVAL_STATUS ( 'not_yet_approved' ) ;
#253 = ORIENTED_EDGE ( 'NONE', *, *, #5, .F. ) ;
#254 = AXIS2_PLACEMENT_3D ( 'NONE', #29, #123, #287 ) ;
#255 = EDGE_LOOP ( 'NONE', ( #277 ) ) ;
#256 = DIRECTION ( 'NONE',  ( -3.491481338843133355E-15, 1.224646799147353207E-16, -1.000000000000000000 ) ) ;
#257 = ADVANCED_FACE ( 'NONE', ( #51, #242 ), #266, .T. ) ;
#258 = FACE_OUTER_BOUND ( 'NONE', #239, .T. ) ;
#259 = EDGE_CURVE ( 'NONE', #83, #83, #224, .T. ) ;
#260 = ORIENTED_EDGE ( 'NONE', *, *, #14, .F. ) ;
#261 = CARTESIAN_POINT ( 'NONE',  ( 2.444036937190193349E-14, -8.572527594031473190E-16, 7.000000000000000000 ) ) ;
#262 = CC_DESIGN_PERSON_AND_ORGANIZATION_ASSIGNMENT ( #33, #182, ( #201 ) ) ;
#263 = CARTESIAN_POINT ( 'NONE',  ( -1.892735826383161794E-31, 0.6506624327025947174, -5.421010862427523403E-17 ) ) ;
#264 = AXIS2_PLACEMENT_3D ( 'NONE', #190, #188, #26 ) ;
#265 = APPLICATION_CONTEXT ( 'configuration controlled 3d designs of mechanical parts and assemblies' ) ;
#266 = CYLINDRICAL_SURFACE ( 'NONE', #254, 0.6949999999999993960 ) ;
#267 = FACE_OUTER_BOUND ( 'NONE', #160, .T. ) ;
#268 = CLOSED_SHELL ( 'NONE', ( #114, #132, #27, #43 ) ) ;
#269 = CONICAL_SURFACE ( 'NONE', #48, 1.499999999999996447, 0.1745329251994258424 ) ;
#270 = VERTEX_POINT ( 'NONE', #263 ) ;
#271 = PERSON_AND_ORGANIZATION ( #167, #178 ) ;
#272 = PRODUCT_DEFINITION ( 'UNKNOWN', '', #217, #191 ) ;
#273 = CIRCLE ( 'NONE', #183, 0.6949999999999989519 ) ;
#274 = PERSON_AND_ORGANIZATION ( #167, #178 ) ;
#275 = EDGE_CURVE ( 'NONE', #294, #294, #290, .T. ) ;
#276 = APPROVAL_DATE_TIME ( #231, #202 ) ;
#277 = ORIENTED_EDGE ( 'NONE', *, *, #18, .T. ) ;
#278 = ORIENTED_EDGE ( 'NONE', *, *, #22, .F. ) ;
#279 = CARTESIAN_POINT ( 'NONE',  ( 2.444036937190193349E-14, -8.572527594031473190E-16, 7.000000000000000000 ) ) ;
#280 = DIRECTION ( 'NONE',  ( 4.275831445896958607E-31, 1.000000000000000000, 1.224646799147353207E-16 ) ) ;
#281 = DIRECTION ( 'NONE',  ( 0.0000000000000000000, 1.000000000000000000, 0.0000000000000000000 ) ) ;
#282 = DIRECTION ( 'NONE',  ( -3.491481338843133355E-15, 1.224646799147353207E-16, -1.000000000000000000 ) ) ;
#283 = CARTESIAN_POINT ( 'NONE',  ( 2.504511167915743751E-14, -8.784642641776459355E-16, 7.173205080756892116 ) ) ;
#284 = CARTESIAN_POINT ( 'NONE',  ( 1.735266225405037467E-13, 1.499999999999995559, 49.70000000000000284 ) ) ;
#285 = CIRCLE ( 'NONE', #180, 0.7253844939755822452 ) ;
#286 = FACE_OUTER_BOUND ( 'NONE', #139, .T. ) ;
#287 = DIRECTION ( 'NONE',  ( 4.275831445896959482E-31, 1.000000000000000000, 1.224646799147353454E-16 ) ) ;
#288 = LOCAL_TIME ( 15, 4, 22.00000000000000000, #165 ) ;
#289 = CARTESIAN_POINT ( 'NONE',  ( 6.892309574038474885E-14, 1.499999999999994005, 19.74035919184426291 ) ) ;
#290 = CIRCLE ( 'NONE', #159, 1.200000000000001732 ) ;
#291 = CARTESIAN_POINT ( 'NONE',  ( 1.735266225405037467E-13, -6.086494591762345225E-15, 49.70000000000000284 ) ) ;
#292 =( NAMED_UNIT ( * ) SI_UNIT ( $, .STERADIAN. ) SOLID_ANGLE_UNIT ( ) );
#293 = SECURITY_CLASSIFICATION_LEVEL ( 'unclassified' ) ;
#294 = VERTEX_POINT ( 'NONE', #84 ) ;
#295 = APPROVAL_DATE_TIME ( #106, #105 ) ;
#296 = AXIS2_PLACEMENT_3D ( 'NONE', #298, #169, #141 ) ;
#297 = DIRECTION ( 'NONE',  ( 4.275831445896958607E-31, 1.000000000000000000, 1.224646799147353454E-16 ) ) ;
#298 = CARTESIAN_POINT ( 'NONE',  ( 6.892309574038474885E-14, -2.417496769831110922E-15, 19.74035919184426291 ) ) ;
#299 = EDGE_LOOP ( 'NONE', ( #210 ) ) ;
#300 = CC_DESIGN_APPROVAL ( #202, ( #272 ) ) ;
#301 = AXIS2_PLACEMENT_3D ( 'NONE', #261, #42, #21 ) ;
#302 = AXIS2_PLACEMENT_3D ( 'NONE', #194, #126, #9 ) ;
#303 = DIRECTION ( 'NONE',  ( 0.0000000000000000000, 1.000000000000000000, 0.0000000000000000000 ) ) ;
ENDSEC;
END-ISO-10303-21;
