ISO-10303-21;
HEADER;
FILE_DESCRIPTION (( 'STEP AP203' ),
    '1' );
FILE_NAME ('965171.step',
    '2021-12-01T10:40:31',
    ( '' ),
    ( '' ),
    'SwSTEP 2.0',
    'SolidWorks 2019',
    '' );
FILE_SCHEMA (( 'CONFIG_CONTROL_DESIGN' ));
ENDSEC;

DATA;
#1 = EDGE_LOOP ( 'NONE', ( #293 ) ) ;
#2 = APPROVAL_DATE_TIME ( #22, #244 ) ;
#3 = FACE_OUTER_BOUND ( 'NONE', #104, .T. ) ;
#4 = ADVANCED_FACE ( 'NONE', ( #112 ), #298, .F. ) ;
#5 = ADVANCED_FACE ( 'NONE', ( #221, #275 ), #105, .T. ) ;
#6 = CARTESIAN_POINT ( 'NONE',  ( 6.599937386400433874E-14, -2.314946411114522540E-15, 18.90297196486593734 ) ) ;
#7 = CIRCLE ( 'NONE', #108, 0.5203844939755828403 ) ;
#8 = PRODUCT ( '965171', '965171', '', ( #248 ) ) ;
#9 = CC_DESIGN_SECURITY_CLASSIFICATION ( #228, ( #294 ) ) ;
#10 = FACE_BOUND ( 'NONE', #109, .T. ) ;
#11 = DIRECTION ( 'NONE',  ( 0.0000000000000000000, 1.000000000000000000, 0.0000000000000000000 ) ) ;
#12 = DIRECTION ( 'NONE',  ( 3.491481338843133355E-15, -1.224646799147353207E-16, 1.000000000000000000 ) ) ;
#13 = AXIS2_PLACEMENT_3D ( 'NONE', #185, #27, #143 ) ;
#14 = DIRECTION ( 'NONE',  ( 0.0000000000000000000, 1.000000000000000000, 0.0000000000000000000 ) ) ;
#15 = EDGE_LOOP ( 'NONE', ( #148 ) ) ;
#16 = DIRECTION ( 'NONE',  ( 3.491481338843133355E-15, -1.224646799147353207E-16, 1.000000000000000000 ) ) ;
#17 = ORIENTED_EDGE ( 'NONE', *, *, #26, .T. ) ;
#18 = APPROVAL_DATE_TIME ( #111, #140 ) ;
#19 = EDGE_LOOP ( 'NONE', ( #102 ) ) ;
#20 = PERSON_AND_ORGANIZATION ( #103, #142 ) ;
#21 = DIRECTION ( 'NONE',  ( 0.0000000000000000000, 1.000000000000000000, 0.0000000000000000000 ) ) ;
#22 = DATE_AND_TIME ( #136, #154 ) ;
#23 = CIRCLE ( 'NONE', #187, 0.4899999999999994360 ) ;
#24 = DIRECTION ( 'NONE',  ( 1.000000000000000000, 0.0000000000000000000, 0.0000000000000000000 ) ) ;
#25 = DIRECTION ( 'NONE',  ( 4.275831445896958607E-31, 1.000000000000000000, 1.224646799147353207E-16 ) ) ;
#26 = EDGE_CURVE ( 'NONE', #264, #264, #115, .T. ) ;
#27 = DIRECTION ( 'NONE',  ( -3.491481338843133355E-15, 1.224646799147353207E-16, -1.000000000000000000 ) ) ;
#28 = CC_DESIGN_APPROVAL ( #244, ( #51 ) ) ;
#29 = DATE_AND_TIME ( #119, #276 ) ;
#30 = DIRECTION ( 'NONE',  ( 3.183355279978905729E-31, 1.000000000000000000, 8.960348532938063004E-17 ) ) ;
#31 = PLANE ( 'NONE',  #288 ) ;
#32 = CC_DESIGN_PERSON_AND_ORGANIZATION_ASSIGNMENT ( #177, #274, ( #294 ) ) ;
#33 = CARTESIAN_POINT ( 'NONE',  ( -3.862450742076307984E-31, 1.354765350032016004E-32, -1.106249859939417904E-16 ) ) ;
#34 = DIRECTION ( 'NONE',  ( -3.491481338843133355E-15, 1.224646799147353207E-16, -1.000000000000000000 ) ) ;
#35 = AXIS2_PLACEMENT_3D ( 'NONE', #6, #12, #287 ) ;
#36 = VERTEX_POINT ( 'NONE', #127 ) ;
#37 = CYLINDRICAL_SURFACE ( 'NONE', #197, 0.4899999999999998801 ) ;
#38 = ORIENTED_EDGE ( 'NONE', *, *, #26, .F. ) ;
#39 = EDGE_LOOP ( 'NONE', ( #297 ) ) ;
#40 = DIRECTION ( 'NONE',  ( -3.491481338843133355E-15, 1.224646799147353207E-16, -1.000000000000000000 ) ) ;
#41 = DIRECTION ( 'NONE',  ( 0.0000000000000000000, 0.0000000000000000000, 1.000000000000000000 ) ) ;
#42 = ORIENTED_EDGE ( 'NONE', *, *, #66, .F. ) ;
#43 = AXIS2_PLACEMENT_3D ( 'NONE', #279, #158, #69 ) ;
#44 = DATE_TIME_ROLE ( 'classification_date' ) ;
#45 = DIRECTION ( 'NONE',  ( 4.275831445896958607E-31, 1.000000000000000000, 1.224646799147353207E-16 ) ) ;
#46 =( NAMED_UNIT ( * ) SI_UNIT ( $, .STERADIAN. ) SOLID_ANGLE_UNIT ( ) );
#47 = FACE_OUTER_BOUND ( 'NONE', #84, .T. ) ;
#48 = CARTESIAN_POINT ( 'NONE',  ( 2.164434168640262928E-14, -7.591813099790852298E-16, 6.199185842870424956 ) ) ;
#49 = DIRECTION ( 'NONE',  ( -3.491481338843133355E-15, 1.224646799147353207E-16, -1.000000000000000000 ) ) ;
#50 = EDGE_CURVE ( 'NONE', #289, #289, #163, .T. ) ;
#51 = PRODUCT_DEFINITION ( 'UNKNOWN', '', #294, #93 ) ;
#52 = CIRCLE ( 'NONE', #267, 1.500000000000003331 ) ;
#53 = FACE_OUTER_BOUND ( 'NONE', #263, .T. ) ;
#54 = FACE_OUTER_BOUND ( 'NONE', #128, .T. ) ;
#55 = EDGE_LOOP ( 'NONE', ( #146 ) ) ;
#56 = VERTEX_POINT ( 'NONE', #240 ) ;
#57 = CIRCLE ( 'NONE', #178, 0.4606624327025948262 ) ;
#58 =( GEOMETRIC_REPRESENTATION_CONTEXT ( 3 ) GLOBAL_UNCERTAINTY_ASSIGNED_CONTEXT ( ( #78 ) ) GLOBAL_UNIT_ASSIGNED_CONTEXT ( ( #245, #201, #46 ) ) REPRESENTATION_CONTEXT ( 'NONE', 'WORKASPACE' ) );
#59 = VERTEX_POINT ( 'NONE', #151 ) ;
#60 = EDGE_LOOP ( 'NONE', ( #241 ) ) ;
#61 = CARTESIAN_POINT ( 'NONE',  ( 0.0000000000000000000, 0.0000000000000000000, 0.0000000000000000000 ) ) ;
#62 = ORIENTED_EDGE ( 'NONE', *, *, #64, .F. ) ;
#63 = PERSON_AND_ORGANIZATION_ROLE ( 'design_owner' ) ;
#64 = EDGE_CURVE ( 'NONE', #56, #56, #23, .T. ) ;
#65 = DIRECTION ( 'NONE',  ( 0.0000000000000000000, 1.000000000000000000, 0.0000000000000000000 ) ) ;
#66 = EDGE_CURVE ( 'NONE', #36, #36, #57, .T. ) ;
#67 = PERSON_AND_ORGANIZATION ( #103, #142 ) ;
#68 = CARTESIAN_POINT ( 'NONE',  ( 0.0000000000000000000, 0.0000000000000000000, 0.0000000000000000000 ) ) ;
#69 = DIRECTION ( 'NONE',  ( -4.275831445896958607E-31, -1.000000000000000000, -1.224646799147353207E-16 ) ) ;
#70 = COORDINATED_UNIVERSAL_TIME_OFFSET ( 1, 0, .AHEAD. ) ;
#71 = DIRECTION ( 'NONE',  ( 3.491481338843133355E-15, -1.224646799147353207E-16, 1.000000000000000000 ) ) ;
#72 = AXIS2_PLACEMENT_3D ( 'NONE', #270, #273, #65 ) ;
#73 = AXIS2_PLACEMENT_3D ( 'NONE', #168, #83, #124 ) ;
#74 = DIRECTION ( 'NONE',  ( 0.0000000000000000000, 1.000000000000000000, 0.0000000000000000000 ) ) ;
#75 = DIRECTION ( 'NONE',  ( 4.275831445896958607E-31, 1.000000000000000000, 1.224646799147353207E-16 ) ) ;
#76 = PLANE ( 'NONE',  #188 ) ;
#77 = TOROIDAL_SURFACE ( 'NONE', #218, 2.490000000000000657, 1.999999999999999556 ) ;
#78 = UNCERTAINTY_MEASURE_WITH_UNIT (LENGTH_MEASURE( 1.000000000000000082E-05 ), #245, 'distance_accuracy_value', 'NONE');
#79 = FACE_BOUND ( 'NONE', #171, .T. ) ;
#80 = CC_DESIGN_DATE_AND_TIME_ASSIGNMENT ( #157, #44, ( #228 ) ) ;
#81 = CARTESIAN_POINT ( 'NONE',  ( 2.094888803305880013E-14, 0.6049999999999993161, 6.000000000000000000 ) ) ;
#82 = CIRCLE ( 'NONE', #13, 0.6050000000000000933 ) ;
#83 = DIRECTION ( 'NONE',  ( -3.491481338843133355E-15, 1.224646799147353207E-16, -1.000000000000000000 ) ) ;
#84 = EDGE_LOOP ( 'NONE', ( #194 ) ) ;
#85 = DIRECTION ( 'NONE',  ( 4.275831445896959482E-31, 1.000000000000000000, 1.224646799147352961E-16 ) ) ;
#86 = CC_DESIGN_DATE_AND_TIME_ASSIGNMENT ( #303, #226, ( #51 ) ) ;
#87 = CALENDAR_DATE ( 2021, 1, 12 ) ;
#88 = COORDINATED_UNIVERSAL_TIME_OFFSET ( 1, 0, .AHEAD. ) ;
#89 = ORIENTED_EDGE ( 'NONE', *, *, #159, .T. ) ;
#90 = PERSON_AND_ORGANIZATION ( #103, #142 ) ;
#91 = DIRECTION ( 'NONE',  ( -3.491481338843133355E-15, 1.224646799147353207E-16, -1.000000000000000000 ) ) ;
#92 = CONICAL_SURFACE ( 'NONE', #195, 0.4899999999999994360, 0.5235987755982930425 ) ;
#93 = DESIGN_CONTEXT ( 'detailed design', #211, 'design' ) ;
#94 = CLOSED_SHELL ( 'NONE', ( #200, #206, #255, #182, #107, #96, #292, #144 ) ) ;
#95 = LOCAL_TIME ( 11, 40, 31.00000000000000000, #280 ) ;
#96 = ADVANCED_FACE ( 'NONE', ( #209, #98 ), #215, .T. ) ;
#97 = DIRECTION ( 'NONE',  ( -3.491481338843133355E-15, 1.224646799147353207E-16, -1.000000000000000000 ) ) ;
#98 = FACE_OUTER_BOUND ( 'NONE', #1, .T. ) ;
#99 = DIRECTION ( 'NONE',  ( -3.491481338843133355E-15, 1.224646799147353207E-16, -1.000000000000000000 ) ) ;
#100 = LOCAL_TIME ( 11, 40, 31.00000000000000000, #132 ) ;
#101 = CARTESIAN_POINT ( 'NONE',  ( 4.538925740496072731E-14, 0.4899999999999986589, 12.99999999999999822 ) ) ;
#102 = ORIENTED_EDGE ( 'NONE', *, *, #139, .F. ) ;
#103 = PERSON ( 'UNSPECIFIED', 'UNSPECIFIED', 'UNSPECIFIED', ('UNSPECIFIED'), ('UNSPECIFIED'), ('UNSPECIFIED') ) ;
#104 = EDGE_LOOP ( 'NONE', ( #38 ) ) ;
#105 = CYLINDRICAL_SURFACE ( 'NONE', #203, 0.6049999999999996492 ) ;
#106 = ADVANCED_FACE ( 'NONE', ( #53 ), #161, .T. ) ;
#107 = ADVANCED_FACE ( 'NONE', ( #10, #162 ), #282, .T. ) ;
#108 = AXIS2_PLACEMENT_3D ( 'NONE', #249, #99, #208 ) ;
#109 = EDGE_LOOP ( 'NONE', ( #173 ) ) ;
#110 = MANIFOLD_SOLID_BREP ( 'Corps-Déplacer/Copier1[2]', #125 ) ;
#111 = DATE_AND_TIME ( #87, #100 ) ;
#112 = FACE_OUTER_BOUND ( 'NONE', #15, .T. ) ;
#113 = MANIFOLD_SOLID_BREP ( 'Corps-Déplacer/Copier1[1]', #94 ) ;
#114 = PERSON_AND_ORGANIZATION_ROLE ( 'classification_officer' ) ;
#115 = CIRCLE ( 'NONE', #135, 0.4900000000000003242 ) ;
#116 = CALENDAR_DATE ( 2021, 1, 12 ) ;
#117 = APPROVAL_PERSON_ORGANIZATION ( #179, #140, #272 ) ;
#118 = DIRECTION ( 'NONE',  ( -3.491481338843133355E-15, 1.224646799147353207E-16, -1.000000000000000000 ) ) ;
#119 = CALENDAR_DATE ( 2021, 1, 12 ) ;
#120 = FACE_OUTER_BOUND ( 'NONE', #19, .T. ) ;
#121 = CARTESIAN_POINT ( 'NONE',  ( 1.316288464743861212E-13, -4.616918432785521081E-15, 37.69999999999999574 ) ) ;
#122 = CC_DESIGN_APPROVAL ( #260, ( #228 ) ) ;
#123 = DIRECTION ( 'NONE',  ( 4.275831445896959482E-31, 1.000000000000000000, 1.224646799147352961E-16 ) ) ;
#124 = DIRECTION ( 'NONE',  ( 0.0000000000000000000, 1.000000000000000000, 0.0000000000000000000 ) ) ;
#125 = CLOSED_SHELL ( 'NONE', ( #4, #269, #5, #106 ) ) ;
#126 = CIRCLE ( 'NONE', #253, 0.6050000000000000933 ) ;
#127 = CARTESIAN_POINT ( 'NONE',  ( -1.892735826383161356E-31, 0.4606624327025948262, -5.421010862427520937E-17 ) ) ;
#128 = EDGE_LOOP ( 'NONE', ( #175 ) ) ;
#129 = FACE_OUTER_BOUND ( 'NONE', #220, .T. ) ;
#130 = EDGE_LOOP ( 'NONE', ( #42 ) ) ;
#131 = CONICAL_SURFACE ( 'NONE', #242, 1.200000000000003286, 0.7853981633974453924 ) ;
#132 = COORDINATED_UNIVERSAL_TIME_OFFSET ( 1, 0, .AHEAD. ) ;
#133 = PERSON_AND_ORGANIZATION ( #103, #142 ) ;
#134 = PERSON_AND_ORGANIZATION ( #103, #142 ) ;
#135 = AXIS2_PLACEMENT_3D ( 'NONE', #156, #176, #21 ) ;
#136 = CALENDAR_DATE ( 2021, 1, 12 ) ;
#137 = CARTESIAN_POINT ( 'NONE',  ( 2.094888803305880013E-14, 4.536773342552108590E-33, 6.000000000000000000 ) ) ;
#138 = VERTEX_POINT ( 'NONE', #207 ) ;
#139 = EDGE_CURVE ( 'NONE', #219, #219, #126, .T. ) ;
#140 = APPROVAL ( #184, 'UNSPECIFIED' ) ;
#141 = CARTESIAN_POINT ( 'NONE',  ( 1.326762908760390423E-13, 8.998558695971103225E-33, 38.00000000000000000 ) ) ;
#142 = ORGANIZATION ( 'UNSPECIFIED', 'UNSPECIFIED', '' ) ;
#143 = DIRECTION ( 'NONE',  ( 0.0000000000000000000, 1.000000000000000000, 0.0000000000000000000 ) ) ;
#144 = ADVANCED_FACE ( 'NONE', ( #47 ), #31, .F. ) ;
#145 = FACE_BOUND ( 'NONE', #130, .T. ) ;
#146 = ORIENTED_EDGE ( 'NONE', *, *, #214, .F. ) ;
#147 = FACE_OUTER_BOUND ( 'NONE', #290, .T. ) ;
#148 = ORIENTED_EDGE ( 'NONE', *, *, #66, .T. ) ;
#149 = AXIS2_PLACEMENT_3D ( 'NONE', #137, #71, #258 ) ;
#150 = EDGE_CURVE ( 'NONE', #291, #291, #82, .T. ) ;
#151 = CARTESIAN_POINT ( 'NONE',  ( 8.728703347107833388E-16, 0.6049999999999993161, 0.2500000000000000000 ) ) ;
#152 = EDGE_LOOP ( 'NONE', ( #238 ) ) ;
#153 = VERTEX_POINT ( 'NONE', #247 ) ;
#154 = LOCAL_TIME ( 11, 40, 31.00000000000000000, #205 ) ;
#155 = PERSON_AND_ORGANIZATION_ROLE ( 'design_supplier' ) ;
#156 = CARTESIAN_POINT ( 'NONE',  ( 4.538925740496072731E-14, -1.592040838891558898E-15, 12.99999999999999822 ) ) ;
#157 = DATE_AND_TIME ( #278, #95 ) ;
#158 = DIRECTION ( 'NONE',  ( 3.491481338843133355E-15, -1.224646799147353207E-16, 1.000000000000000000 ) ) ;
#159 = EDGE_CURVE ( 'NONE', #172, #172, #7, .T. ) ;
#160 = CIRCLE ( 'NONE', #235, 0.6049999999999993161 ) ;
#161 = PLANE ( 'NONE',  #149 ) ;
#162 = FACE_OUTER_BOUND ( 'NONE', #152, .T. ) ;
#163 = CIRCLE ( 'NONE', #72, 1.499999999999997780 ) ;
#164 = APPROVAL_PERSON_ORGANIZATION ( #133, #244, #251 ) ;
#165 = DIRECTION ( 'NONE',  ( -3.491481338843133355E-15, 1.224646799147353207E-16, -1.000000000000000000 ) ) ;
#166 = DIRECTION ( 'NONE',  ( 3.491481338843133355E-15, -1.224646799147353207E-16, 1.000000000000000000 ) ) ;
#167 = CONICAL_SURFACE ( 'NONE', #174, 0.6049999999999993161, 0.5235987755982929315 ) ;
#168 = CARTESIAN_POINT ( 'NONE',  ( 1.326762908760390423E-13, -4.653657836759941941E-15, 38.00000000000000000 ) ) ;
#169 = EDGE_LOOP ( 'NONE', ( #266 ) ) ;
#170 = CARTESIAN_POINT ( 'NONE',  ( 6.599937386400433874E-14, 1.499999999999995559, 18.90297196486593734 ) ) ;
#171 = EDGE_LOOP ( 'NONE', ( #225 ) ) ;
#172 = VERTEX_POINT ( 'NONE', #265 ) ;
#173 = ORIENTED_EDGE ( 'NONE', *, *, #159, .F. ) ;
#174 = AXIS2_PLACEMENT_3D ( 'NONE', #216, #16, #193 ) ;
#175 = ORIENTED_EDGE ( 'NONE', *, *, #233, .F. ) ;
#176 = DIRECTION ( 'NONE',  ( -3.491481338843133355E-15, 1.224646799147353207E-16, -1.000000000000000000 ) ) ;
#177 = PERSON_AND_ORGANIZATION ( #103, #142 ) ;
#178 = AXIS2_PLACEMENT_3D ( 'NONE', #33, #286, #75 ) ;
#179 = PERSON_AND_ORGANIZATION ( #103, #142 ) ;
#180 = EDGE_LOOP ( 'NONE', ( #89 ) ) ;
#181 = ORIENTED_EDGE ( 'NONE', *, *, #150, .F. ) ;
#182 = ADVANCED_FACE ( 'NONE', ( #3, #259 ), #77, .F. ) ;
#183 = CC_DESIGN_PERSON_AND_ORGANIZATION_ASSIGNMENT ( #281, #63, ( #8 ) ) ;
#184 = APPROVAL_STATUS ( 'not_yet_approved' ) ;
#185 = CARTESIAN_POINT ( 'NONE',  ( 2.094888803305880013E-14, -7.347880794884119736E-16, 6.000000000000000000 ) ) ;
#186 = SHAPE_DEFINITION_REPRESENTATION ( #189, #199 ) ;
#187 = AXIS2_PLACEMENT_3D ( 'NONE', #202, #97, #230 ) ;
#188 = AXIS2_PLACEMENT_3D ( 'NONE', #210, #166, #261 ) ;
#189 = PRODUCT_DEFINITION_SHAPE ( 'NONE', 'NONE',  #51 ) ;
#190 = DIRECTION ( 'NONE',  ( -3.491481338843133355E-15, 1.224646799147353207E-16, -1.000000000000000000 ) ) ;
#191 = DIRECTION ( 'NONE',  ( 0.0000000000000000000, 1.000000000000000000, 0.0000000000000000000 ) ) ;
#192 = CC_DESIGN_PERSON_AND_ORGANIZATION_ASSIGNMENT ( #90, #300, ( #51 ) ) ;
#193 = DIRECTION ( 'NONE',  ( -3.183355279978905729E-31, -1.000000000000000000, -8.960348532938063004E-17 ) ) ;
#194 = ORIENTED_EDGE ( 'NONE', *, *, #243, .F. ) ;
#195 = AXIS2_PLACEMENT_3D ( 'NONE', #48, #284, #74 ) ;
#196 = CARTESIAN_POINT ( 'NONE',  ( 2.094888803305880013E-14, 0.6049999999999993161, 6.000000000000000000 ) ) ;
#197 = AXIS2_PLACEMENT_3D ( 'NONE', #61, #222, #123 ) ;
#198 = EDGE_LOOP ( 'NONE', ( #217 ) ) ;
#199 = ADVANCED_BREP_SHAPE_REPRESENTATION ( '965171', ( #113, #110, #302 ), #58 ) ;
#200 = ADVANCED_FACE ( 'NONE', ( #285 ), #76, .F. ) ;
#201 =( NAMED_UNIT ( * ) PLANE_ANGLE_UNIT ( ) SI_UNIT ( $, .RADIAN. ) );
#202 = CARTESIAN_POINT ( 'NONE',  ( 2.164434168640262928E-14, -7.591813099790852298E-16, 6.199185842870424956 ) ) ;
#203 = AXIS2_PLACEMENT_3D ( 'NONE', #295, #40, #85 ) ;
#204 = LOCAL_TIME ( 11, 40, 31.00000000000000000, #88 ) ;
#205 = COORDINATED_UNIVERSAL_TIME_OFFSET ( 1, 0, .AHEAD. ) ;
#206 = ADVANCED_FACE ( 'NONE', ( #120, #232 ), #92, .T. ) ;
#207 = CARTESIAN_POINT ( 'NONE',  ( 1.326762908760390423E-13, 1.199999999999998845, 38.00000000000000000 ) ) ;
#208 = DIRECTION ( 'NONE',  ( 0.0000000000000000000, 1.000000000000000000, 0.0000000000000000000 ) ) ;
#209 = FACE_OUTER_BOUND ( 'NONE', #60, .T. ) ;
#210 = CARTESIAN_POINT ( 'NONE',  ( 2.094888803305880013E-14, 4.536773342552108590E-33, 6.000000000000000000 ) ) ;
#211 = APPLICATION_CONTEXT ( 'configuration controlled 3d designs of mechanical parts and assemblies' ) ;
#212 = CARTESIAN_POINT ( 'NONE',  ( 0.0000000000000000000, 0.0000000000000000000, 0.0000000000000000000 ) ) ;
#213 = DIRECTION ( 'NONE',  ( -3.491481338843133355E-15, 1.224646799147353207E-16, -1.000000000000000000 ) ) ;
#214 = EDGE_CURVE ( 'NONE', #59, #59, #160, .T. ) ;
#215 = CYLINDRICAL_SURFACE ( 'NONE', #231, 1.500000000000000444 ) ;
#216 = CARTESIAN_POINT ( 'NONE',  ( 8.728703347107831416E-16, -3.061616997868382402E-17, 0.2499999999999999445 ) ) ;
#217 = ORIENTED_EDGE ( 'NONE', *, *, #150, .T. ) ;
#218 = AXIS2_PLACEMENT_3D ( 'NONE', #252, #118, #254 ) ;
#219 = VERTEX_POINT ( 'NONE', #196 ) ;
#220 = EDGE_LOOP ( 'NONE', ( #62 ) ) ;
#221 = FACE_OUTER_BOUND ( 'NONE', #55, .T. ) ;
#222 = DIRECTION ( 'NONE',  ( -3.491481338843133355E-15, 1.224646799147353207E-16, -1.000000000000000000 ) ) ;
#223 = EDGE_LOOP ( 'NONE', ( #268 ) ) ;
#224 = APPROVAL_STATUS ( 'not_yet_approved' ) ;
#225 = ORIENTED_EDGE ( 'NONE', *, *, #243, .T. ) ;
#226 = DATE_TIME_ROLE ( 'creation_date' ) ;
#227 = APPROVAL_STATUS ( 'not_yet_approved' ) ;
#228 = SECURITY_CLASSIFICATION ( '', '', #246 ) ;
#229 = APPLICATION_PROTOCOL_DEFINITION ( 'international standard', 'config_control_design', 1994, #211 ) ;
#230 = DIRECTION ( 'NONE',  ( 0.0000000000000000000, 1.000000000000000000, 0.0000000000000000000 ) ) ;
#231 = AXIS2_PLACEMENT_3D ( 'NONE', #212, #165, #45 ) ;
#232 = FACE_BOUND ( 'NONE', #39, .T. ) ;
#233 = EDGE_CURVE ( 'NONE', #153, #153, #52, .T. ) ;
#234 = CARTESIAN_POINT ( 'NONE',  ( 2.094888803305880013E-14, -7.347880794884119736E-16, 6.000000000000000000 ) ) ;
#235 = AXIS2_PLACEMENT_3D ( 'NONE', #256, #49, #30 ) ;
#236 = PRODUCT_RELATED_PRODUCT_CATEGORY ( 'detail', '', ( #8 ) ) ;
#237 = CARTESIAN_POINT ( 'NONE',  ( 1.326762908760390423E-13, -4.653657836759941941E-15, 38.00000000000000000 ) ) ;
#238 = ORIENTED_EDGE ( 'NONE', *, *, #50, .T. ) ;
#239 = CC_DESIGN_PERSON_AND_ORGANIZATION_ASSIGNMENT ( #20, #114, ( #228 ) ) ;
#240 = CARTESIAN_POINT ( 'NONE',  ( 2.164434168640262928E-14, 0.4899999999999986589, 6.199185842870424956 ) ) ;
#241 = ORIENTED_EDGE ( 'NONE', *, *, #50, .F. ) ;
#242 = AXIS2_PLACEMENT_3D ( 'NONE', #237, #34, #14 ) ;
#243 = EDGE_CURVE ( 'NONE', #138, #138, #262, .T. ) ;
#244 = APPROVAL ( #224, 'UNSPECIFIED' ) ;
#245 =( LENGTH_UNIT ( ) NAMED_UNIT ( * ) SI_UNIT ( .MILLI., .METRE. ) );
#246 = SECURITY_CLASSIFICATION_LEVEL ( 'unclassified' ) ;
#247 = CARTESIAN_POINT ( 'NONE',  ( 1.316288464743861212E-13, 1.499999999999998668, 37.69999999999999574 ) ) ;
#248 = MECHANICAL_CONTEXT ( 'NONE', #271, 'mechanical' ) ;
#249 = CARTESIAN_POINT ( 'NONE',  ( 4.660183614865709749E-14, -1.634572375883073005E-15, 13.34729635533384773 ) ) ;
#250 = APPROVAL_PERSON_ORGANIZATION ( #134, #260, #283 ) ;
#251 = APPROVAL_ROLE ( '' ) ;
#252 = CARTESIAN_POINT ( 'NONE',  ( 4.538925740496073362E-14, -1.734723475976807094E-15, 13.00000000000000000 ) ) ;
#253 = AXIS2_PLACEMENT_3D ( 'NONE', #234, #190, #191 ) ;
#254 = DIRECTION ( 'NONE',  ( 4.275831445896958607E-31, 1.000000000000000000, 1.224646799147353207E-16 ) ) ;
#255 = ADVANCED_FACE ( 'NONE', ( #129, #147 ), #37, .T. ) ;
#256 = CARTESIAN_POINT ( 'NONE',  ( 8.728703347107831416E-16, -3.061616997868382402E-17, 0.2499999999999999445 ) ) ;
#257 = APPROVAL_DATE_TIME ( #29, #260 ) ;
#258 = DIRECTION ( 'NONE',  ( -4.275831445896958607E-31, -1.000000000000000000, -1.224646799147353207E-16 ) ) ;
#259 = FACE_OUTER_BOUND ( 'NONE', #180, .T. ) ;
#260 = APPROVAL ( #227, 'UNSPECIFIED' ) ;
#261 = DIRECTION ( 'NONE',  ( -4.275831445896958607E-31, -1.000000000000000000, -1.224646799147353207E-16 ) ) ;
#262 = CIRCLE ( 'NONE', #73, 1.200000000000003286 ) ;
#263 = EDGE_LOOP ( 'NONE', ( #181 ) ) ;
#264 = VERTEX_POINT ( 'NONE', #101 ) ;
#265 = CARTESIAN_POINT ( 'NONE',  ( 4.660183614865709749E-14, 0.5203844939755811749, 13.34729635533384773 ) ) ;
#266 = ORIENTED_EDGE ( 'NONE', *, *, #214, .T. ) ;
#267 = AXIS2_PLACEMENT_3D ( 'NONE', #121, #213, #11 ) ;
#268 = ORIENTED_EDGE ( 'NONE', *, *, #139, .T. ) ;
#269 = ADVANCED_FACE ( 'NONE', ( #145, #296 ), #167, .T. ) ;
#270 = CARTESIAN_POINT ( 'NONE',  ( 6.599937386400433874E-14, -2.314946411114522540E-15, 18.90297196486593734 ) ) ;
#271 = APPLICATION_CONTEXT ( 'configuration controlled 3d designs of mechanical parts and assemblies' ) ;
#272 = APPROVAL_ROLE ( '' ) ;
#273 = DIRECTION ( 'NONE',  ( -3.491481338843133355E-15, 1.224646799147353207E-16, -1.000000000000000000 ) ) ;
#274 = PERSON_AND_ORGANIZATION_ROLE ( 'creator' ) ;
#275 = FACE_OUTER_BOUND ( 'NONE', #198, .T. ) ;
#276 = LOCAL_TIME ( 11, 40, 31.00000000000000000, #70 ) ;
#277 = CC_DESIGN_APPROVAL ( #140, ( #294 ) ) ;
#278 = CALENDAR_DATE ( 2021, 1, 12 ) ;
#279 = CARTESIAN_POINT ( 'NONE',  ( -1.931225371038153992E-31, 6.773826750160080020E-33, -5.531249299697089518E-17 ) ) ;
#280 = COORDINATED_UNIVERSAL_TIME_OFFSET ( 1, 0, .AHEAD. ) ;
#281 = PERSON_AND_ORGANIZATION ( #103, #142 ) ;
#282 = CONICAL_SURFACE ( 'NONE', #35, 1.499999999999997780, 0.1745329251994261199 ) ;
#283 = APPROVAL_ROLE ( '' ) ;
#284 = DIRECTION ( 'NONE',  ( -3.491481338843133355E-15, 1.224646799147353207E-16, -1.000000000000000000 ) ) ;
#285 = FACE_OUTER_BOUND ( 'NONE', #223, .T. ) ;
#286 = DIRECTION ( 'NONE',  ( -3.491481338843133355E-15, 1.224646799147353207E-16, -1.000000000000000000 ) ) ;
#287 = DIRECTION ( 'NONE',  ( 0.0000000000000000000, -1.000000000000000000, 0.0000000000000000000 ) ) ;
#288 = AXIS2_PLACEMENT_3D ( 'NONE', #141, #91, #25 ) ;
#289 = VERTEX_POINT ( 'NONE', #170 ) ;
#290 = EDGE_LOOP ( 'NONE', ( #17 ) ) ;
#291 = VERTEX_POINT ( 'NONE', #81 ) ;
#292 = ADVANCED_FACE ( 'NONE', ( #54, #79 ), #131, .T. ) ;
#293 = ORIENTED_EDGE ( 'NONE', *, *, #233, .T. ) ;
#294 = PRODUCT_DEFINITION_FORMATION_WITH_SPECIFIED_SOURCE ( 'ANY', '', #8, .NOT_KNOWN. ) ;
#295 = CARTESIAN_POINT ( 'NONE',  ( 0.0000000000000000000, 0.0000000000000000000, 0.0000000000000000000 ) ) ;
#296 = FACE_OUTER_BOUND ( 'NONE', #169, .T. ) ;
#297 = ORIENTED_EDGE ( 'NONE', *, *, #64, .T. ) ;
#298 = PLANE ( 'NONE',  #43 ) ;
#299 = APPLICATION_PROTOCOL_DEFINITION ( 'international standard', 'config_control_design', 1994, #271 ) ;
#300 = PERSON_AND_ORGANIZATION_ROLE ( 'creator' ) ;
#301 = CC_DESIGN_PERSON_AND_ORGANIZATION_ASSIGNMENT ( #67, #155, ( #294 ) ) ;
#302 = AXIS2_PLACEMENT_3D ( 'NONE', #68, #41, #24 ) ;
#303 = DATE_AND_TIME ( #116, #204 ) ;
ENDSEC;
END-ISO-10303-21;
