ISO-10303-21;
HEADER;
FILE_DESCRIPTION (( 'STEP AP203' ),
    '1' );
FILE_NAME ('965169.step',
    '2021-12-01T10:40:30',
    ( '' ),
    ( '' ),
    'SwSTEP 2.0',
    'SolidWorks 2019',
    '' );
FILE_SCHEMA (( 'CONFIG_CONTROL_DESIGN' ));
ENDSEC;

DATA;
#1 = VERTEX_POINT ( 'NONE', #131 ) ;
#2 = CARTESIAN_POINT ( 'NONE',  ( 1.745740669421566678E-14, -6.123233995736766282E-16, 5.000000000000000000 ) ) ;
#3 = DIRECTION ( 'NONE',  ( 4.275831445896958607E-31, 1.000000000000000000, 1.224646799147353207E-16 ) ) ;
#4 = ORIENTED_EDGE ( 'NONE', *, *, #283, .T. ) ;
#5 = CARTESIAN_POINT ( 'NONE',  ( 1.791096342465729558E-14, 0.4699999999999988631, 5.129903810567668643 ) ) ;
#6 = EDGE_CURVE ( 'NONE', #17, #17, #134, .T. ) ;
#7 = CARTESIAN_POINT ( 'NONE',  ( 8.728703347107831416E-16, -3.061616997868382402E-17, 0.2499999999999999445 ) ) ;
#8 = APPROVAL_PERSON_ORGANIZATION ( #130, #128, #225 ) ;
#9 = AXIS2_PLACEMENT_3D ( 'NONE', #2, #216, #32 ) ;
#10 = AXIS2_PLACEMENT_3D ( 'NONE', #190, #120, #173 ) ;
#11 = DIRECTION ( 'NONE',  ( -3.491481338843133355E-15, 1.224646799147353207E-16, -1.000000000000000000 ) ) ;
#12 = FACE_OUTER_BOUND ( 'NONE', #300, .T. ) ;
#13 = CC_DESIGN_DATE_AND_TIME_ASSIGNMENT ( #34, #214, ( #265 ) ) ;
#14 = LOCAL_TIME ( 11, 40, 30.00000000000000000, #73 ) ;
#15 = FACE_BOUND ( 'NONE', #297, .T. ) ;
#16 = CC_DESIGN_SECURITY_CLASSIFICATION ( #265, ( #33 ) ) ;
#17 = VERTEX_POINT ( 'NONE', #74 ) ;
#18 = PRODUCT_DEFINITION_SHAPE ( 'NONE', 'NONE',  #215 ) ;
#19 = CARTESIAN_POINT ( 'NONE',  ( 1.745740669421566678E-14, 4.086845407753552813E-33, 5.000000000000000000 ) ) ;
#20 = DIRECTION ( 'NONE',  ( -4.275831445896958607E-31, -1.000000000000000000, -1.224646799147353207E-16 ) ) ;
#21 = CONICAL_SURFACE ( 'NONE', #99, 1.499999999999997780, 0.1745329251994260367 ) ;
#22 = DIRECTION ( 'NONE',  ( 0.0000000000000000000, 1.000000000000000000, 0.0000000000000000000 ) ) ;
#23 = UNCERTAINTY_MEASURE_WITH_UNIT (LENGTH_MEASURE( 1.000000000000000082E-05 ), #189, 'distance_accuracy_value', 'NONE');
#24 = ORIENTED_EDGE ( 'NONE', *, *, #121, .T. ) ;
#25 = DIRECTION ( 'NONE',  ( 0.0000000000000000000, 1.000000000000000000, 0.0000000000000000000 ) ) ;
#26 = PERSON_AND_ORGANIZATION ( #42, #133 ) ;
#27 = FACE_BOUND ( 'NONE', #102, .T. ) ;
#28 = CIRCLE ( 'NONE', #282, 0.4006624327025949950 ) ;
#29 = VERTEX_POINT ( 'NONE', #187 ) ;
#30 = CALENDAR_DATE ( 2021, 1, 12 ) ;
#31 = EDGE_CURVE ( 'NONE', #257, #257, #213, .T. ) ;
#32 = DIRECTION ( 'NONE',  ( 0.0000000000000000000, 1.000000000000000000, 0.0000000000000000000 ) ) ;
#33 = PRODUCT_DEFINITION_FORMATION_WITH_SPECIFIED_SOURCE ( 'ANY', '', #302, .NOT_KNOWN. ) ;
#34 = DATE_AND_TIME ( #59, #211 ) ;
#35 = ORIENTED_EDGE ( 'NONE', *, *, #31, .T. ) ;
#36 = ADVANCED_FACE ( 'NONE', ( #27, #210 ), #251, .T. ) ;
#37 = DIRECTION ( 'NONE',  ( 0.0000000000000000000, -1.000000000000000000, 0.0000000000000000000 ) ) ;
#38 = DIRECTION ( 'NONE',  ( -3.491481338843133355E-15, 1.224646799147353207E-16, -1.000000000000000000 ) ) ;
#39 = CC_DESIGN_DATE_AND_TIME_ASSIGNMENT ( #273, #258, ( #215 ) ) ;
#40 = MANIFOLD_SOLID_BREP ( 'Corps-Déplacer/Copier1[1]', #148 ) ;
#41 = EDGE_LOOP ( 'NONE', ( #198 ) ) ;
#42 = PERSON ( 'UNSPECIFIED', 'UNSPECIFIED', 'UNSPECIFIED', ('UNSPECIFIED'), ('UNSPECIFIED'), ('UNSPECIFIED') ) ;
#43 = CARTESIAN_POINT ( 'NONE',  ( -3.605900855322490976E-31, 1.264779763072304712E-32, -1.032771051990576997E-16 ) ) ;
#44 = ORIENTED_EDGE ( 'NONE', *, *, #64, .T. ) ;
#45 = AXIS2_PLACEMENT_3D ( 'NONE', #197, #86, #254 ) ;
#46 = ADVANCED_FACE ( 'NONE', ( #255, #170 ), #174, .F. ) ;
#47 = FACE_OUTER_BOUND ( 'NONE', #186, .T. ) ;
#48 = ORIENTED_EDGE ( 'NONE', *, *, #222, .T. ) ;
#49 = PLANE ( 'NONE',  #142 ) ;
#50 = PLANE ( 'NONE',  #260 ) ;
#51 = ORIENTED_EDGE ( 'NONE', *, *, #248, .F. ) ;
#52 = APPLICATION_CONTEXT ( 'configuration controlled 3d designs of mechanical parts and assemblies' ) ;
#53 =( NAMED_UNIT ( * ) SI_UNIT ( $, .STERADIAN. ) SOLID_ANGLE_UNIT ( ) );
#54 = DIRECTION ( 'NONE',  ( 0.0000000000000000000, 1.000000000000000000, 0.0000000000000000000 ) ) ;
#55 = PRODUCT_RELATED_PRODUCT_CATEGORY ( 'detail', '', ( #302 ) ) ;
#56 = PERSON_AND_ORGANIZATION ( #42, #133 ) ;
#57 = EDGE_LOOP ( 'NONE', ( #183 ) ) ;
#58 = APPROVAL_STATUS ( 'not_yet_approved' ) ;
#59 = CALENDAR_DATE ( 2021, 1, 12 ) ;
#60 = ORIENTED_EDGE ( 'NONE', *, *, #64, .F. ) ;
#61 = AXIS2_PLACEMENT_3D ( 'NONE', #296, #88, #252 ) ;
#62 = FACE_OUTER_BOUND ( 'NONE', #139, .T. ) ;
#63 = CARTESIAN_POINT ( 'NONE',  ( 0.0000000000000000000, 0.0000000000000000000, 0.0000000000000000000 ) ) ;
#64 = EDGE_CURVE ( 'NONE', #1, #1, #191, .T. ) ;
#65 = CONICAL_SURFACE ( 'NONE', #180, 1.200000000000003286, 0.7853981633974453924 ) ;
#66 = DIRECTION ( 'NONE',  ( 4.275831445896958607E-31, 1.000000000000000000, 1.224646799147353207E-16 ) ) ;
#67 = FACE_OUTER_BOUND ( 'NONE', #41, .T. ) ;
#68 = DIRECTION ( 'NONE',  ( -3.491481338843133355E-15, 1.224646799147353207E-16, -1.000000000000000000 ) ) ;
#69 = ADVANCED_FACE ( 'NONE', ( #294, #219 ), #21, .T. ) ;
#70 = CYLINDRICAL_SURFACE ( 'NONE', #240, 0.4699999999999999178 ) ;
#71 = CALENDAR_DATE ( 2021, 1, 12 ) ;
#72 = DIRECTION ( 'NONE',  ( 3.491481338843133355E-15, -1.224646799147353207E-16, 1.000000000000000000 ) ) ;
#73 = COORDINATED_UNIVERSAL_TIME_OFFSET ( 1, 0, .AHEAD. ) ;
#74 = CARTESIAN_POINT ( 'NONE',  ( 1.745740669421566678E-14, 0.5449999999999993738, 5.000000000000000000 ) ) ;
#75 = PERSON_AND_ORGANIZATION ( #42, #133 ) ;
#76 =( GEOMETRIC_REPRESENTATION_CONTEXT ( 3 ) GLOBAL_UNCERTAINTY_ASSIGNED_CONTEXT ( ( #23 ) ) GLOBAL_UNIT_ASSIGNED_CONTEXT ( ( #189, #238, #53 ) ) REPRESENTATION_CONTEXT ( 'NONE', 'WORKASPACE' ) );
#77 = CARTESIAN_POINT ( 'NONE',  ( -1.892735826383161356E-31, 0.4006624327025949950, -5.421010862427522170E-17 ) ) ;
#78 = EDGE_LOOP ( 'NONE', ( #154 ) ) ;
#79 = MECHANICAL_CONTEXT ( 'NONE', #166, 'mechanical' ) ;
#80 = VERTEX_POINT ( 'NONE', #77 ) ;
#81 = DIRECTION ( 'NONE',  ( -3.491481338843133355E-15, 1.224646799147353207E-16, -1.000000000000000000 ) ) ;
#82 = APPROVAL ( #298, 'UNSPECIFIED' ) ;
#83 = APPROVAL_ROLE ( '' ) ;
#84 = ADVANCED_FACE ( 'NONE', ( #117, #15 ), #274, .T. ) ;
#85 = CIRCLE ( 'NONE', #167, 1.200000000000003286 ) ;
#86 = DIRECTION ( 'NONE',  ( -3.491481338843133355E-15, 1.224646799147353207E-16, -1.000000000000000000 ) ) ;
#87 = PLANE ( 'NONE',  #243 ) ;
#88 = DIRECTION ( 'NONE',  ( -3.491481338843133355E-15, 1.224646799147353207E-16, -1.000000000000000000 ) ) ;
#89 = PLANE ( 'NONE',  #229 ) ;
#90 = PERSON_AND_ORGANIZATION ( #42, #133 ) ;
#91 = FACE_OUTER_BOUND ( 'NONE', #269, .T. ) ;
#92 = CIRCLE ( 'NONE', #61, 0.5450000000000000400 ) ;
#93 = ADVANCED_FACE ( 'NONE', ( #62, #12 ), #97, .T. ) ;
#94 = AXIS2_PLACEMENT_3D ( 'NONE', #223, #107, #3 ) ;
#95 = ORIENTED_EDGE ( 'NONE', *, *, #163, .F. ) ;
#96 = DIRECTION ( 'NONE',  ( -3.533816411719702670E-31, -1.000000000000000000, -9.946808921885372636E-17 ) ) ;
#97 = CYLINDRICAL_SURFACE ( 'NONE', #172, 0.5449999999999997069 ) ;
#98 = ADVANCED_BREP_SHAPE_REPRESENTATION ( '965169', ( #40, #136, #295 ), #76 ) ;
#99 = AXIS2_PLACEMENT_3D ( 'NONE', #144, #266, #37 ) ;
#100 = CARTESIAN_POINT ( 'NONE',  ( 8.728703347107833388E-16, 0.5449999999999993738, 0.2500000000000000000 ) ) ;
#101 = DIRECTION ( 'NONE',  ( 4.275831445896957731E-31, 1.000000000000000000, 1.224646799147352961E-16 ) ) ;
#102 = EDGE_LOOP ( 'NONE', ( #245 ) ) ;
#103 = DATE_AND_TIME ( #71, #14 ) ;
#104 = CARTESIAN_POINT ( 'NONE',  ( 1.326762908760390423E-13, -4.653657836759941941E-15, 38.00000000000000000 ) ) ;
#105 = DIRECTION ( 'NONE',  ( -3.491481338843133355E-15, 1.224646799147353207E-16, -1.000000000000000000 ) ) ;
#106 = DIRECTION ( 'NONE',  ( 1.000000000000000000, 0.0000000000000000000, 0.0000000000000000000 ) ) ;
#107 = DIRECTION ( 'NONE',  ( -3.491481338843133355E-15, 1.224646799147353207E-16, -1.000000000000000000 ) ) ;
#108 = PERSON_AND_ORGANIZATION_ROLE ( 'creator' ) ;
#109 = CC_DESIGN_APPROVAL ( #207, ( #265 ) ) ;
#110 = EDGE_CURVE ( 'NONE', #185, #185, #220, .T. ) ;
#111 = CARTESIAN_POINT ( 'NONE',  ( 3.840629472727446691E-14, 0.4699999999999990852, 11.00000000000000000 ) ) ;
#112 = PERSON_AND_ORGANIZATION ( #42, #133 ) ;
#113 = AXIS2_PLACEMENT_3D ( 'NONE', #221, #127, #22 ) ;
#114 = AXIS2_PLACEMENT_3D ( 'NONE', #162, #11, #234 ) ;
#115 = SECURITY_CLASSIFICATION_LEVEL ( 'unclassified' ) ;
#116 = CC_DESIGN_PERSON_AND_ORGANIZATION_ASSIGNMENT ( #75, #161, ( #215 ) ) ;
#117 = FACE_OUTER_BOUND ( 'NONE', #132, .T. ) ;
#118 = CC_DESIGN_APPROVAL ( #128, ( #215 ) ) ;
#119 = DIRECTION ( 'NONE',  ( 4.275831445896958607E-31, 1.000000000000000000, 1.224646799147353207E-16 ) ) ;
#120 = DIRECTION ( 'NONE',  ( -3.491481338843133355E-15, 1.224646799147353207E-16, -1.000000000000000000 ) ) ;
#121 = EDGE_CURVE ( 'NONE', #80, #80, #28, .T. ) ;
#122 = CARTESIAN_POINT ( 'NONE',  ( 1.326762908760390423E-13, 8.998558695971103225E-33, 38.00000000000000000 ) ) ;
#123 = CIRCLE ( 'NONE', #113, 0.4700000000000004174 ) ;
#124 = DIRECTION ( 'NONE',  ( 3.491481338843133355E-15, -1.224646799147353207E-16, 1.000000000000000000 ) ) ;
#125 = ORIENTED_EDGE ( 'NONE', *, *, #283, .F. ) ;
#126 = DIRECTION ( 'NONE',  ( 0.0000000000000000000, 0.0000000000000000000, 1.000000000000000000 ) ) ;
#127 = DIRECTION ( 'NONE',  ( -3.491481338843133355E-15, 1.224646799147353207E-16, -1.000000000000000000 ) ) ;
#128 = APPROVAL ( #184, 'UNSPECIFIED' ) ;
#129 = EDGE_LOOP ( 'NONE', ( #192 ) ) ;
#130 = PERSON_AND_ORGANIZATION ( #42, #133 ) ;
#131 = CARTESIAN_POINT ( 'NONE',  ( 3.961887347097082447E-14, 0.5003844939755802690, 11.34729635533384595 ) ) ;
#132 = EDGE_LOOP ( 'NONE', ( #247 ) ) ;
#133 = ORGANIZATION ( 'UNSPECIFIED', 'UNSPECIFIED', '' ) ;
#134 = CIRCLE ( 'NONE', #9, 0.5450000000000000400 ) ;
#135 = DIRECTION ( 'NONE',  ( -4.275831445896958607E-31, -1.000000000000000000, -1.224646799147353207E-16 ) ) ;
#136 = MANIFOLD_SOLID_BREP ( 'Corps-Déplacer/Copier1[2]', #244 ) ;
#137 = DATE_AND_TIME ( #140, #249 ) ;
#138 = VERTEX_POINT ( 'NONE', #5 ) ;
#139 = EDGE_LOOP ( 'NONE', ( #181 ) ) ;
#140 = CALENDAR_DATE ( 2021, 1, 12 ) ;
#141 = DATE_AND_TIME ( #30, #193 ) ;
#142 = AXIS2_PLACEMENT_3D ( 'NONE', #122, #151, #299 ) ;
#143 = EDGE_LOOP ( 'NONE', ( #159 ) ) ;
#144 = CARTESIAN_POINT ( 'NONE',  ( 5.941243467912842197E-14, -2.083907685539968187E-15, 17.01639760125830136 ) ) ;
#145 = DIRECTION ( 'NONE',  ( -3.491481338843133355E-15, 1.224646799147353207E-16, -1.000000000000000000 ) ) ;
#146 = APPROVAL_PERSON_ORGANIZATION ( #290, #207, #83 ) ;
#147 = CARTESIAN_POINT ( 'NONE',  ( 5.941243467912842197E-14, -2.083907685539968187E-15, 17.01639760125830136 ) ) ;
#148 = CLOSED_SHELL ( 'NONE', ( #301, #84, #263, #46, #69, #286, #202, #218 ) ) ;
#149 = AXIS2_PLACEMENT_3D ( 'NONE', #288, #81, #66 ) ;
#150 = CARTESIAN_POINT ( 'NONE',  ( 1.326762908760390423E-13, -4.653657836759941941E-15, 38.00000000000000000 ) ) ;
#151 = DIRECTION ( 'NONE',  ( -3.491481338843133355E-15, 1.224646799147353207E-16, -1.000000000000000000 ) ) ;
#152 = EDGE_LOOP ( 'NONE', ( #125 ) ) ;
#153 = CYLINDRICAL_SURFACE ( 'NONE', #94, 1.500000000000000444 ) ;
#154 = ORIENTED_EDGE ( 'NONE', *, *, #168, .T. ) ;
#155 = COORDINATED_UNIVERSAL_TIME_OFFSET ( 1, 0, .AHEAD. ) ;
#156 = FACE_BOUND ( 'NONE', #129, .T. ) ;
#157 = APPROVAL_DATE_TIME ( #103, #128 ) ;
#158 = FACE_OUTER_BOUND ( 'NONE', #280, .T. ) ;
#159 = ORIENTED_EDGE ( 'NONE', *, *, #110, .T. ) ;
#160 = LOCAL_TIME ( 11, 40, 30.00000000000000000, #155 ) ;
#161 = PERSON_AND_ORGANIZATION_ROLE ( 'creator' ) ;
#162 = CARTESIAN_POINT ( 'NONE',  ( 8.728703347107831416E-16, -3.061616997868382402E-17, 0.2499999999999999445 ) ) ;
#163 = EDGE_CURVE ( 'NONE', #29, #29, #92, .T. ) ;
#164 = PERSON_AND_ORGANIZATION_ROLE ( 'design_owner' ) ;
#165 = PERSON_AND_ORGANIZATION ( #42, #133 ) ;
#166 = APPLICATION_CONTEXT ( 'configuration controlled 3d designs of mechanical parts and assemblies' ) ;
#167 = AXIS2_PLACEMENT_3D ( 'NONE', #150, #177, #54 ) ;
#168 = EDGE_CURVE ( 'NONE', #287, #287, #268, .T. ) ;
#169 = AXIS2_PLACEMENT_3D ( 'NONE', #7, #291, #96 ) ;
#170 = FACE_OUTER_BOUND ( 'NONE', #201, .T. ) ;
#171 = APPLICATION_PROTOCOL_DEFINITION ( 'international standard', 'config_control_design', 1994, #166 ) ;
#172 = AXIS2_PLACEMENT_3D ( 'NONE', #63, #38, #119 ) ;
#173 = DIRECTION ( 'NONE',  ( 0.0000000000000000000, 1.000000000000000000, 0.0000000000000000000 ) ) ;
#174 = TOROIDAL_SURFACE ( 'NONE', #149, 2.470000000000000195, 2.000000000000000000 ) ;
#175 = CC_DESIGN_PERSON_AND_ORGANIZATION_ASSIGNMENT ( #165, #208, ( #265 ) ) ;
#176 = APPROVAL_PERSON_ORGANIZATION ( #56, #82, #178 ) ;
#177 = DIRECTION ( 'NONE',  ( -3.491481338843133355E-15, 1.224646799147353207E-16, -1.000000000000000000 ) ) ;
#178 = APPROVAL_ROLE ( '' ) ;
#179 = CARTESIAN_POINT ( 'NONE',  ( -1.802950427661245488E-31, 6.323898815361523559E-33, -5.163855259952884985E-17 ) ) ;
#180 = AXIS2_PLACEMENT_3D ( 'NONE', #104, #105, #195 ) ;
#181 = ORIENTED_EDGE ( 'NONE', *, *, #31, .F. ) ;
#182 = CARTESIAN_POINT ( 'NONE',  ( 0.0000000000000000000, 0.0000000000000000000, 0.0000000000000000000 ) ) ;
#183 = ORIENTED_EDGE ( 'NONE', *, *, #222, .F. ) ;
#184 = APPROVAL_STATUS ( 'not_yet_approved' ) ;
#185 = VERTEX_POINT ( 'NONE', #228 ) ;
#186 = EDGE_LOOP ( 'NONE', ( #24 ) ) ;
#187 = CARTESIAN_POINT ( 'NONE',  ( 1.745740669421566678E-14, 0.5449999999999993738, 5.000000000000000000 ) ) ;
#188 = ADVANCED_FACE ( 'NONE', ( #91 ), #89, .T. ) ;
#189 =( LENGTH_UNIT ( ) NAMED_UNIT ( * ) SI_UNIT ( .MILLI., .METRE. ) );
#190 = CARTESIAN_POINT ( 'NONE',  ( 3.961887347097082447E-14, -1.389643016053602117E-15, 11.34729635533384595 ) ) ;
#191 = CIRCLE ( 'NONE', #10, 0.5003844939755817123 ) ;
#192 = ORIENTED_EDGE ( 'NONE', *, *, #248, .T. ) ;
#193 = LOCAL_TIME ( 11, 40, 30.00000000000000000, #264 ) ;
#194 = FACE_OUTER_BOUND ( 'NONE', #227, .T. ) ;
#195 = DIRECTION ( 'NONE',  ( 0.0000000000000000000, 1.000000000000000000, 0.0000000000000000000 ) ) ;
#196 = ORIENTED_EDGE ( 'NONE', *, *, #110, .F. ) ;
#197 = CARTESIAN_POINT ( 'NONE',  ( 1.316288464743861212E-13, -4.616918432785521081E-15, 37.69999999999999574 ) ) ;
#198 = ORIENTED_EDGE ( 'NONE', *, *, #168, .F. ) ;
#199 = APPLICATION_PROTOCOL_DEFINITION ( 'international standard', 'config_control_design', 1994, #52 ) ;
#200 = CARTESIAN_POINT ( 'NONE',  ( 1.791096342465729558E-14, -6.282320281545505167E-16, 5.129903810567668643 ) ) ;
#201 = EDGE_LOOP ( 'NONE', ( #44 ) ) ;
#202 = ADVANCED_FACE ( 'NONE', ( #67, #156 ), #65, .T. ) ;
#203 = FACE_OUTER_BOUND ( 'NONE', #204, .T. ) ;
#204 = EDGE_LOOP ( 'NONE', ( #51 ) ) ;
#205 = AXIS2_PLACEMENT_3D ( 'NONE', #242, #145, #267 ) ;
#206 = CARTESIAN_POINT ( 'NONE',  ( 1.316288464743861212E-13, 1.499999999999998668, 37.69999999999999574 ) ) ;
#207 = APPROVAL ( #58, 'UNSPECIFIED' ) ;
#208 = PERSON_AND_ORGANIZATION_ROLE ( 'classification_officer' ) ;
#209 = CARTESIAN_POINT ( 'NONE',  ( 1.326762908760390423E-13, 1.199999999999998845, 38.00000000000000000 ) ) ;
#210 = FACE_OUTER_BOUND ( 'NONE', #239, .T. ) ;
#211 = LOCAL_TIME ( 11, 40, 30.00000000000000000, #259 ) ;
#212 = AXIS2_PLACEMENT_3D ( 'NONE', #200, #246, #25 ) ;
#213 = CIRCLE ( 'NONE', #114, 0.5449999999999993738 ) ;
#214 = DATE_TIME_ROLE ( 'classification_date' ) ;
#215 = PRODUCT_DEFINITION ( 'UNKNOWN', '', #33, #232 ) ;
#216 = DIRECTION ( 'NONE',  ( -3.491481338843133355E-15, 1.224646799147353207E-16, -1.000000000000000000 ) ) ;
#217 = DIRECTION ( 'NONE',  ( -3.491481338843133355E-15, 1.224646799147353207E-16, -1.000000000000000000 ) ) ;
#218 = ADVANCED_FACE ( 'NONE', ( #203 ), #49, .F. ) ;
#219 = FACE_OUTER_BOUND ( 'NONE', #143, .T. ) ;
#220 = CIRCLE ( 'NONE', #256, 1.499999999999997780 ) ;
#221 = CARTESIAN_POINT ( 'NONE',  ( 3.840629472727446691E-14, -1.347111479062088405E-15, 11.00000000000000000 ) ) ;
#222 = EDGE_CURVE ( 'NONE', #284, #284, #123, .T. ) ;
#223 = CARTESIAN_POINT ( 'NONE',  ( 0.0000000000000000000, 0.0000000000000000000, 0.0000000000000000000 ) ) ;
#224 = EDGE_LOOP ( 'NONE', ( #60 ) ) ;
#225 = APPROVAL_ROLE ( '' ) ;
#226 = CARTESIAN_POINT ( 'NONE',  ( 1.745740669421566678E-14, 4.086845407753552813E-33, 5.000000000000000000 ) ) ;
#227 = EDGE_LOOP ( 'NONE', ( #272 ) ) ;
#228 = CARTESIAN_POINT ( 'NONE',  ( 5.941243467912842197E-14, 1.499999999999995781, 17.01639760125830136 ) ) ;
#229 = AXIS2_PLACEMENT_3D ( 'NONE', #19, #250, #270 ) ;
#230 = CC_DESIGN_PERSON_AND_ORGANIZATION_ASSIGNMENT ( #112, #289, ( #33 ) ) ;
#231 = DIRECTION ( 'NONE',  ( 0.0000000000000000000, 1.000000000000000000, 0.0000000000000000000 ) ) ;
#232 = DESIGN_CONTEXT ( 'detailed design', #52, 'design' ) ;
#233 = APPROVAL_DATE_TIME ( #137, #82 ) ;
#234 = DIRECTION ( 'NONE',  ( 3.533816411719702670E-31, 1.000000000000000000, 9.946808921885372636E-17 ) ) ;
#235 = CALENDAR_DATE ( 2021, 1, 12 ) ;
#236 = APPROVAL_DATE_TIME ( #141, #207 ) ;
#237 = SHAPE_DEFINITION_REPRESENTATION ( #18, #98 ) ;
#238 =( NAMED_UNIT ( * ) PLANE_ANGLE_UNIT ( ) SI_UNIT ( $, .RADIAN. ) );
#239 = EDGE_LOOP ( 'NONE', ( #35 ) ) ;
#240 = AXIS2_PLACEMENT_3D ( 'NONE', #182, #279, #271 ) ;
#241 = ADVANCED_FACE ( 'NONE', ( #47 ), #87, .F. ) ;
#242 = CARTESIAN_POINT ( 'NONE',  ( 1.791096342465729558E-14, -6.282320281545505167E-16, 5.129903810567668643 ) ) ;
#243 = AXIS2_PLACEMENT_3D ( 'NONE', #179, #124, #135 ) ;
#244 = CLOSED_SHELL ( 'NONE', ( #241, #36, #93, #188 ) ) ;
#245 = ORIENTED_EDGE ( 'NONE', *, *, #121, .F. ) ;
#246 = DIRECTION ( 'NONE',  ( -3.491481338843133355E-15, 1.224646799147353207E-16, -1.000000000000000000 ) ) ;
#247 = ORIENTED_EDGE ( 'NONE', *, *, #6, .F. ) ;
#248 = EDGE_CURVE ( 'NONE', #261, #261, #85, .T. ) ;
#249 = LOCAL_TIME ( 11, 40, 30.00000000000000000, #253 ) ;
#250 = DIRECTION ( 'NONE',  ( 3.491481338843133355E-15, -1.224646799147353207E-16, 1.000000000000000000 ) ) ;
#251 = CONICAL_SURFACE ( 'NONE', #169, 0.5449999999999993738, 0.5235987755982925984 ) ;
#252 = DIRECTION ( 'NONE',  ( 0.0000000000000000000, 1.000000000000000000, 0.0000000000000000000 ) ) ;
#253 = COORDINATED_UNIVERSAL_TIME_OFFSET ( 1, 0, .AHEAD. ) ;
#254 = DIRECTION ( 'NONE',  ( 0.0000000000000000000, 1.000000000000000000, 0.0000000000000000000 ) ) ;
#255 = FACE_OUTER_BOUND ( 'NONE', #57, .T. ) ;
#256 = AXIS2_PLACEMENT_3D ( 'NONE', #147, #217, #231 ) ;
#257 = VERTEX_POINT ( 'NONE', #100 ) ;
#258 = DATE_TIME_ROLE ( 'creation_date' ) ;
#259 = COORDINATED_UNIVERSAL_TIME_OFFSET ( 1, 0, .AHEAD. ) ;
#260 = AXIS2_PLACEMENT_3D ( 'NONE', #226, #72, #20 ) ;
#261 = VERTEX_POINT ( 'NONE', #209 ) ;
#262 = ORIENTED_EDGE ( 'NONE', *, *, #163, .T. ) ;
#263 = ADVANCED_FACE ( 'NONE', ( #275, #303 ), #70, .T. ) ;
#264 = COORDINATED_UNIVERSAL_TIME_OFFSET ( 1, 0, .AHEAD. ) ;
#265 = SECURITY_CLASSIFICATION ( '', '', #115 ) ;
#266 = DIRECTION ( 'NONE',  ( 3.491481338843133355E-15, -1.224646799147353207E-16, 1.000000000000000000 ) ) ;
#267 = DIRECTION ( 'NONE',  ( 0.0000000000000000000, 1.000000000000000000, 0.0000000000000000000 ) ) ;
#268 = CIRCLE ( 'NONE', #45, 1.500000000000003331 ) ;
#269 = EDGE_LOOP ( 'NONE', ( #95 ) ) ;
#270 = DIRECTION ( 'NONE',  ( -4.275831445896958607E-31, -1.000000000000000000, -1.224646799147353207E-16 ) ) ;
#271 = DIRECTION ( 'NONE',  ( 4.275831445896958607E-31, 1.000000000000000000, 1.224646799147353454E-16 ) ) ;
#272 = ORIENTED_EDGE ( 'NONE', *, *, #6, .T. ) ;
#273 = DATE_AND_TIME ( #235, #160 ) ;
#274 = CONICAL_SURFACE ( 'NONE', #205, 0.4699999999999994738, 0.5235987755982934866 ) ;
#275 = FACE_OUTER_BOUND ( 'NONE', #152, .T. ) ;
#276 = EDGE_LOOP ( 'NONE', ( #48 ) ) ;
#277 = CARTESIAN_POINT ( 'NONE',  ( 0.0000000000000000000, 0.0000000000000000000, 0.0000000000000000000 ) ) ;
#278 = CC_DESIGN_PERSON_AND_ORGANIZATION_ASSIGNMENT ( #90, #164, ( #302 ) ) ;
#279 = DIRECTION ( 'NONE',  ( -3.491481338843133355E-15, 1.224646799147353207E-16, -1.000000000000000000 ) ) ;
#280 = EDGE_LOOP ( 'NONE', ( #196 ) ) ;
#281 = FACE_OUTER_BOUND ( 'NONE', #78, .T. ) ;
#282 = AXIS2_PLACEMENT_3D ( 'NONE', #43, #68, #101 ) ;
#283 = EDGE_CURVE ( 'NONE', #138, #138, #293, .T. ) ;
#284 = VERTEX_POINT ( 'NONE', #111 ) ;
#285 = CC_DESIGN_APPROVAL ( #82, ( #33 ) ) ;
#286 = ADVANCED_FACE ( 'NONE', ( #158, #281 ), #153, .T. ) ;
#287 = VERTEX_POINT ( 'NONE', #206 ) ;
#288 = CARTESIAN_POINT ( 'NONE',  ( 3.840629472727446691E-14, -1.301042606982605321E-15, 11.00000000000000000 ) ) ;
#289 = PERSON_AND_ORGANIZATION_ROLE ( 'design_supplier' ) ;
#290 = PERSON_AND_ORGANIZATION ( #42, #133 ) ;
#291 = DIRECTION ( 'NONE',  ( 3.491481338843133355E-15, -1.224646799147353207E-16, 1.000000000000000000 ) ) ;
#292 = CC_DESIGN_PERSON_AND_ORGANIZATION_ASSIGNMENT ( #26, #108, ( #33 ) ) ;
#293 = CIRCLE ( 'NONE', #212, 0.4699999999999994738 ) ;
#294 = FACE_BOUND ( 'NONE', #224, .T. ) ;
#295 = AXIS2_PLACEMENT_3D ( 'NONE', #277, #126, #106 ) ;
#296 = CARTESIAN_POINT ( 'NONE',  ( 1.745740669421566678E-14, -6.123233995736766282E-16, 5.000000000000000000 ) ) ;
#297 = EDGE_LOOP ( 'NONE', ( #4 ) ) ;
#298 = APPROVAL_STATUS ( 'not_yet_approved' ) ;
#299 = DIRECTION ( 'NONE',  ( 4.275831445896958607E-31, 1.000000000000000000, 1.224646799147353207E-16 ) ) ;
#300 = EDGE_LOOP ( 'NONE', ( #262 ) ) ;
#301 = ADVANCED_FACE ( 'NONE', ( #194 ), #50, .F. ) ;
#302 = PRODUCT ( '965169', '965169', '', ( #79 ) ) ;
#303 = FACE_OUTER_BOUND ( 'NONE', #276, .T. ) ;
ENDSEC;
END-ISO-10303-21;
