ISO-10303-21;
HEADER;
FILE_DESCRIPTION (( 'STEP AP203' ),
    '1' );
FILE_NAME ('965168.step',
    '2021-12-01T10:40:30',
    ( '' ),
    ( '' ),
    'SwSTEP 2.0',
    'SolidWorks 2019',
    '' );
FILE_SCHEMA (( 'CONFIG_CONTROL_DESIGN' ));
ENDSEC;

DATA;
#1 = DIRECTION ( 'NONE',  ( 0.0000000000000000000, 1.000000000000000000, 0.0000000000000000000 ) ) ;
#2 = SHAPE_DEFINITION_REPRESENTATION ( #121, #224 ) ;
#3 = VERTEX_POINT ( 'NONE', #38 ) ;
#4 = ORIENTED_EDGE ( 'NONE', *, *, #109, .T. ) ;
#5 = AXIS2_PLACEMENT_3D ( 'NONE', #234, #25, #20 ) ;
#6 = EDGE_LOOP ( 'NONE', ( #57 ) ) ;
#7 = ORIENTED_EDGE ( 'NONE', *, *, #161, .F. ) ;
#8 = EDGE_CURVE ( 'NONE', #97, #97, #89, .T. ) ;
#9 = APPLICATION_CONTEXT ( 'configuration controlled 3d designs of mechanical parts and assemblies' ) ;
#10 = EDGE_LOOP ( 'NONE', ( #81 ) ) ;
#11 = SECURITY_CLASSIFICATION ( '', '', #274 ) ;
#12 = LOCAL_TIME ( 11, 40, 30.00000000000000000, #26 ) ;
#13 = DIRECTION ( 'NONE',  ( 0.0000000000000000000, 1.000000000000000000, 0.0000000000000000000 ) ) ;
#14 = DIRECTION ( 'NONE',  ( 0.0000000000000000000, 1.000000000000000000, 0.0000000000000000000 ) ) ;
#15 = DATE_AND_TIME ( #152, #50 ) ;
#16 = PRODUCT_RELATED_PRODUCT_CATEGORY ( 'detail', '', ( #213 ) ) ;
#17 = FACE_OUTER_BOUND ( 'NONE', #244, .T. ) ;
#18 = COORDINATED_UNIVERSAL_TIME_OFFSET ( 1, 0, .AHEAD. ) ;
#19 = CARTESIAN_POINT ( 'NONE',  ( 1.326762908760390423E-13, -4.653657836759941941E-15, 38.00000000000000000 ) ) ;
#20 = DIRECTION ( 'NONE',  ( 4.275831445896958607E-31, 1.000000000000000000, 1.224646799147353207E-16 ) ) ;
#21 = ORGANIZATION ( 'UNSPECIFIED', 'UNSPECIFIED', '' ) ;
#22 = DIRECTION ( 'NONE',  ( -3.491481338843133355E-15, 1.224646799147353207E-16, -1.000000000000000000 ) ) ;
#23 = EDGE_CURVE ( 'NONE', #295, #295, #155, .T. ) ;
#24 = CYLINDRICAL_SURFACE ( 'NONE', #211, 0.3699999999999992184 ) ;
#25 = DIRECTION ( 'NONE',  ( -3.491481338843133355E-15, 1.224646799147353207E-16, -1.000000000000000000 ) ) ;
#26 = COORDINATED_UNIVERSAL_TIME_OFFSET ( 1, 0, .AHEAD. ) ;
#27 = CONICAL_SURFACE ( 'NONE', #266, 1.499999999999997335, 0.1745329251994260367 ) ;
#28 = DESIGN_CONTEXT ( 'detailed design', #9, 'design' ) ;
#29 = PERSON_AND_ORGANIZATION_ROLE ( 'creator' ) ;
#30 =( NAMED_UNIT ( * ) SI_UNIT ( $, .STERADIAN. ) SOLID_ANGLE_UNIT ( ) );
#31 = CIRCLE ( 'NONE', #280, 0.4003844939755813459 ) ;
#32 = ORIENTED_EDGE ( 'NONE', *, *, #217, .T. ) ;
#33 = ADVANCED_FACE ( 'NONE', ( #197, #34 ), #115, .T. ) ;
#34 = FACE_BOUND ( 'NONE', #6, .T. ) ;
#35 = CARTESIAN_POINT ( 'NONE',  ( 3.491481338843132369E-16, 0.4049999999999993605, 0.09999999999999996392 ) ) ;
#36 = EDGE_LOOP ( 'NONE', ( #44 ) ) ;
#37 = CIRCLE ( 'NONE', #64, 1.500000000000003331 ) ;
#38 = CARTESIAN_POINT ( 'NONE',  ( 1.766906650175510155E-14, 0.3699999999999983857, 5.060621778264914106 ) ) ;
#39 = EDGE_LOOP ( 'NONE', ( #178 ) ) ;
#40 = ADVANCED_FACE ( 'NONE', ( #60, #87 ), #153, .T. ) ;
#41 = PERSON_AND_ORGANIZATION ( #113, #21 ) ;
#42 = ORIENTED_EDGE ( 'NONE', *, *, #23, .T. ) ;
#43 = PERSON_AND_ORGANIZATION ( #113, #21 ) ;
#44 = ORIENTED_EDGE ( 'NONE', *, *, #23, .F. ) ;
#45 = ADVANCED_FACE ( 'NONE', ( #144, #148 ), #284, .T. ) ;
#46 = DIRECTION ( 'NONE',  ( -3.491481338843133355E-15, 1.224646799147353207E-16, -1.000000000000000000 ) ) ;
#47 = CARTESIAN_POINT ( 'NONE',  ( 0.0000000000000000000, 0.0000000000000000000, 0.0000000000000000000 ) ) ;
#48 = DATE_AND_TIME ( #235, #254 ) ;
#49 = DIRECTION ( 'NONE',  ( -3.491481338843133355E-15, 1.224646799147353207E-16, -1.000000000000000000 ) ) ;
#50 = LOCAL_TIME ( 11, 40, 30.00000000000000000, #108 ) ;
#51 = FACE_OUTER_BOUND ( 'NONE', #282, .T. ) ;
#52 = CALENDAR_DATE ( 2021, 1, 12 ) ;
#53 = FACE_OUTER_BOUND ( 'NONE', #36, .T. ) ;
#54 = CARTESIAN_POINT ( 'NONE',  ( 0.0000000000000000000, 0.0000000000000000000, 0.0000000000000000000 ) ) ;
#55 = CC_DESIGN_PERSON_AND_ORGANIZATION_ASSIGNMENT ( #117, #122, ( #11 ) ) ;
#56 = CARTESIAN_POINT ( 'NONE',  ( 3.263591079328455776E-14, 0.4003844939755802357, 9.347296355333845952 ) ) ;
#57 = ORIENTED_EDGE ( 'NONE', *, *, #8, .T. ) ;
#58 = AXIS2_PLACEMENT_3D ( 'NONE', #203, #273, #135 ) ;
#59 = ORIENTED_EDGE ( 'NONE', *, *, #217, .F. ) ;
#60 = FACE_OUTER_BOUND ( 'NONE', #102, .T. ) ;
#61 = VERTEX_POINT ( 'NONE', #196 ) ;
#62 = CARTESIAN_POINT ( 'NONE',  ( 1.316288464743861212E-13, -4.616918432785521081E-15, 37.69999999999999574 ) ) ;
#63 = EDGE_CURVE ( 'NONE', #248, #248, #147, .T. ) ;
#64 = AXIS2_PLACEMENT_3D ( 'NONE', #62, #243, #149 ) ;
#65 = APPROVAL_STATUS ( 'not_yet_approved' ) ;
#66 = ORIENTED_EDGE ( 'NONE', *, *, #165, .T. ) ;
#67 = APPROVAL_DATE_TIME ( #15, #281 ) ;
#68 = DIRECTION ( 'NONE',  ( 0.0000000000000000000, 1.000000000000000000, 0.0000000000000000000 ) ) ;
#69 = EDGE_CURVE ( 'NONE', #92, #92, #143, .T. ) ;
#70 = DIRECTION ( 'NONE',  ( 3.491481338843133355E-15, -1.224646799147353207E-16, 1.000000000000000000 ) ) ;
#71 = LOCAL_TIME ( 11, 40, 30.00000000000000000, #291 ) ;
#72 = CARTESIAN_POINT ( 'NONE',  ( 1.326762908760390423E-13, 8.998558695971103225E-33, 38.00000000000000000 ) ) ;
#73 = PLANE ( 'NONE',  #104 ) ;
#74 = CARTESIAN_POINT ( 'NONE',  ( -1.215607202575021590E-31, 4.263776102974189857E-33, -3.481637404305304172E-17 ) ) ;
#75 = CC_DESIGN_DATE_AND_TIME_ASSIGNMENT ( #206, #300, ( #11 ) ) ;
#76 = PRODUCT_DEFINITION_FORMATION_WITH_SPECIFIED_SOURCE ( 'ANY', '', #213, .NOT_KNOWN. ) ;
#77 = DIRECTION ( 'NONE',  ( -3.491481338843133355E-15, 1.224646799147353207E-16, -1.000000000000000000 ) ) ;
#78 = CARTESIAN_POINT ( 'NONE',  ( 5.440958946549379771E-14, 1.499999999999995559, 15.58352578322009663 ) ) ;
#79 = CLOSED_SHELL ( 'NONE', ( #263, #45, #236, #202 ) ) ;
#80 =( LENGTH_UNIT ( ) NAMED_UNIT ( * ) SI_UNIT ( .MILLI., .METRE. ) );
#81 = ORIENTED_EDGE ( 'NONE', *, *, #109, .F. ) ;
#82 = AXIS2_PLACEMENT_3D ( 'NONE', #277, #210, #1 ) ;
#83 = EDGE_LOOP ( 'NONE', ( #110 ) ) ;
#84 = MANIFOLD_SOLID_BREP ( 'Corps-Déplacer/Copier1[1]', #283 ) ;
#85 = DIRECTION ( 'NONE',  ( 0.0000000000000000000, 0.0000000000000000000, 1.000000000000000000 ) ) ;
#86 = ORIENTED_EDGE ( 'NONE', *, *, #161, .T. ) ;
#87 = FACE_BOUND ( 'NONE', #188, .T. ) ;
#88 = DIRECTION ( 'NONE',  ( 4.275831445896958607E-31, 1.000000000000000000, 1.224646799147352961E-16 ) ) ;
#89 = CIRCLE ( 'NONE', #180, 1.200000000000003286 ) ;
#90 = DIRECTION ( 'NONE',  ( 0.0000000000000000000, -1.000000000000000000, 0.0000000000000000000 ) ) ;
#91 = DIRECTION ( 'NONE',  ( -3.491481338843133355E-15, 1.224646799147353207E-16, -1.000000000000000000 ) ) ;
#92 = VERTEX_POINT ( 'NONE', #216 ) ;
#93 = DIRECTION ( 'NONE',  ( -4.275831445896958607E-31, -1.000000000000000000, -1.224646799147353207E-16 ) ) ;
#94 = FACE_OUTER_BOUND ( 'NONE', #166, .T. ) ;
#95 = COORDINATED_UNIVERSAL_TIME_OFFSET ( 1, 0, .AHEAD. ) ;
#96 = DIRECTION ( 'NONE',  ( 3.491481338843133355E-15, -1.224646799147353207E-16, 1.000000000000000000 ) ) ;
#97 = VERTEX_POINT ( 'NONE', #278 ) ;
#98 = APPROVAL_ROLE ( '' ) ;
#99 = EDGE_LOOP ( 'NONE', ( #4 ) ) ;
#100 = PERSON_AND_ORGANIZATION ( #113, #21 ) ;
#101 = VERTEX_POINT ( 'NONE', #56 ) ;
#102 = EDGE_LOOP ( 'NONE', ( #7 ) ) ;
#103 = ORIENTED_EDGE ( 'NONE', *, *, #215, .T. ) ;
#104 = AXIS2_PLACEMENT_3D ( 'NONE', #233, #119, #162 ) ;
#105 = EDGE_LOOP ( 'NONE', ( #154 ) ) ;
#106 = VERTEX_POINT ( 'NONE', #35 ) ;
#107 = CARTESIAN_POINT ( 'NONE',  ( -2.431214405150043180E-31, 8.527552205948379714E-33, -6.963274808610608343E-17 ) ) ;
#108 = COORDINATED_UNIVERSAL_TIME_OFFSET ( 1, 0, .AHEAD. ) ;
#109 = EDGE_CURVE ( 'NONE', #61, #61, #37, .T. ) ;
#110 = ORIENTED_EDGE ( 'NONE', *, *, #165, .F. ) ;
#111 = AXIS2_PLACEMENT_3D ( 'NONE', #19, #201, #221 ) ;
#112 = CARTESIAN_POINT ( 'NONE',  ( -9.463679131915808972E-32, 0.3472649730810377644, -2.710505431213761701E-17 ) ) ;
#113 = PERSON ( 'UNSPECIFIED', 'UNSPECIFIED', 'UNSPECIFIED', ('UNSPECIFIED'), ('UNSPECIFIED'), ('UNSPECIFIED') ) ;
#114 = FACE_OUTER_BOUND ( 'NONE', #131, .T. ) ;
#115 = CONICAL_SURFACE ( 'NONE', #111, 1.200000000000003286, 0.7853981633974453924 ) ;
#116 = CARTESIAN_POINT ( 'NONE',  ( 1.745740669421566678E-14, 3.037013559890251666E-33, 5.000000000000000000 ) ) ;
#117 = PERSON_AND_ORGANIZATION ( #113, #21 ) ;
#118 = CARTESIAN_POINT ( 'NONE',  ( 0.0000000000000000000, 0.0000000000000000000, 0.0000000000000000000 ) ) ;
#119 = DIRECTION ( 'NONE',  ( 3.491481338843133355E-15, -1.224646799147353207E-16, 1.000000000000000000 ) ) ;
#120 = AXIS2_PLACEMENT_3D ( 'NONE', #74, #96, #185 ) ;
#121 = PRODUCT_DEFINITION_SHAPE ( 'NONE', 'NONE',  #245 ) ;
#122 = PERSON_AND_ORGANIZATION_ROLE ( 'classification_officer' ) ;
#123 = CC_DESIGN_PERSON_AND_ORGANIZATION_ASSIGNMENT ( #134, #271, ( #213 ) ) ;
#124 = AXIS2_PLACEMENT_3D ( 'NONE', #125, #70, #151 ) ;
#125 = CARTESIAN_POINT ( 'NONE',  ( 3.491481338843130397E-16, -1.224646799147352036E-17, 0.09999999999999990841 ) ) ;
#126 = ADVANCED_FACE ( 'NONE', ( #223, #17 ), #27, .T. ) ;
#127 = DIRECTION ( 'NONE',  ( 0.0000000000000000000, 1.000000000000000000, 0.0000000000000000000 ) ) ;
#128 = PERSON_AND_ORGANIZATION ( #113, #21 ) ;
#129 = CARTESIAN_POINT ( 'NONE',  ( 1.766906650175510155E-14, -6.197474262447513462E-16, 5.060621778264914106 ) ) ;
#130 = APPROVAL_STATUS ( 'not_yet_approved' ) ;
#131 = EDGE_LOOP ( 'NONE', ( #103 ) ) ;
#132 = AXIS2_PLACEMENT_3D ( 'NONE', #54, #85, #262 ) ;
#133 = CARTESIAN_POINT ( 'NONE',  ( 3.491481338843130397E-16, -1.224646799147352036E-17, 0.09999999999999990841 ) ) ;
#134 = PERSON_AND_ORGANIZATION ( #113, #21 ) ;
#135 = DIRECTION ( 'NONE',  ( 0.0000000000000000000, 1.000000000000000000, 0.0000000000000000000 ) ) ;
#136 = FACE_OUTER_BOUND ( 'NONE', #99, .T. ) ;
#137 = TOROIDAL_SURFACE ( 'NONE', #260, 2.369999999999999662, 2.000000000000000000 ) ;
#138 = PERSON_AND_ORGANIZATION_ROLE ( 'design_supplier' ) ;
#139 = FACE_OUTER_BOUND ( 'NONE', #264, .T. ) ;
#140 = CYLINDRICAL_SURFACE ( 'NONE', #5, 1.500000000000000444 ) ;
#141 = AXIS2_PLACEMENT_3D ( 'NONE', #116, #253, #93 ) ;
#142 = APPROVAL_DATE_TIME ( #48, #296 ) ;
#143 = CIRCLE ( 'NONE', #303, 0.3699999999999994404 ) ;
#144 = FACE_BOUND ( 'NONE', #171, .T. ) ;
#145 = VERTEX_POINT ( 'NONE', #240 ) ;
#146 = APPROVAL_ROLE ( '' ) ;
#147 = CIRCLE ( 'NONE', #226, 0.3472649730810377644 ) ;
#148 = FACE_OUTER_BOUND ( 'NONE', #214, .T. ) ;
#149 = DIRECTION ( 'NONE',  ( 0.0000000000000000000, 1.000000000000000000, 0.0000000000000000000 ) ) ;
#150 = DATE_AND_TIME ( #269, #71 ) ;
#151 = DIRECTION ( 'NONE',  ( -4.755382578733923558E-31, -1.000000000000000000, -1.338521200599390406E-16 ) ) ;
#152 = CALENDAR_DATE ( 2021, 1, 12 ) ;
#153 = CONICAL_SURFACE ( 'NONE', #167, 0.3699999999999989408, 0.5235987755982890457 ) ;
#154 = ORIENTED_EDGE ( 'NONE', *, *, #268, .T. ) ;
#155 = CIRCLE ( 'NONE', #258, 1.499999999999997335 ) ;
#156 = CC_DESIGN_SECURITY_CLASSIFICATION ( #11, ( #76 ) ) ;
#157 = CYLINDRICAL_SURFACE ( 'NONE', #164, 0.4049999999999996381 ) ;
#158 = DIRECTION ( 'NONE',  ( 4.755382578733923558E-31, 1.000000000000000000, 1.338521200599390406E-16 ) ) ;
#159 = FACE_OUTER_BOUND ( 'NONE', #218, .T. ) ;
#160 = CC_DESIGN_APPROVAL ( #281, ( #245 ) ) ;
#161 = EDGE_CURVE ( 'NONE', #145, #145, #204, .T. ) ;
#162 = DIRECTION ( 'NONE',  ( -4.275831445896958607E-31, -1.000000000000000000, -1.224646799147353207E-16 ) ) ;
#163 = PERSON_AND_ORGANIZATION ( #113, #21 ) ;
#164 = AXIS2_PLACEMENT_3D ( 'NONE', #47, #49, #207 ) ;
#165 = EDGE_CURVE ( 'NONE', #3, #3, #297, .T. ) ;
#166 = EDGE_LOOP ( 'NONE', ( #86 ) ) ;
#167 = AXIS2_PLACEMENT_3D ( 'NONE', #129, #91, #14 ) ;
#168 = CC_DESIGN_APPROVAL ( #296, ( #11 ) ) ;
#169 = ORIENTED_EDGE ( 'NONE', *, *, #63, .F. ) ;
#170 =( NAMED_UNIT ( * ) PLANE_ANGLE_UNIT ( ) SI_UNIT ( $, .RADIAN. ) );
#171 = EDGE_LOOP ( 'NONE', ( #169 ) ) ;
#172 = APPLICATION_PROTOCOL_DEFINITION ( 'international standard', 'config_control_design', 1994, #9 ) ;
#173 = APPROVAL_PERSON_ORGANIZATION ( #128, #281, #146 ) ;
#174 = APPROVAL_PERSON_ORGANIZATION ( #163, #296, #98 ) ;
#175 = ORIENTED_EDGE ( 'NONE', *, *, #69, .T. ) ;
#176 = CARTESIAN_POINT ( 'NONE',  ( 1.745740669421566678E-14, -6.123233995736766282E-16, 5.000000000000000000 ) ) ;
#177 = MANIFOLD_SOLID_BREP ( 'Corps-Déplacer/Copier1[2]', #79 ) ;
#178 = ORIENTED_EDGE ( 'NONE', *, *, #8, .F. ) ;
#179 = ADVANCED_FACE ( 'NONE', ( #182, #114 ), #137, .F. ) ;
#180 = AXIS2_PLACEMENT_3D ( 'NONE', #222, #272, #127 ) ;
#181 = CARTESIAN_POINT ( 'NONE',  ( 3.263591079328455776E-14, -1.144713656224131427E-15, 9.347296355333845952 ) ) ;
#182 = FACE_OUTER_BOUND ( 'NONE', #293, .T. ) ;
#183 = FACE_OUTER_BOUND ( 'NONE', #105, .T. ) ;
#184 = APPROVAL ( #130, 'UNSPECIFIED' ) ;
#185 = DIRECTION ( 'NONE',  ( -4.275831445896958607E-31, -1.000000000000000000, -1.224646799147353207E-16 ) ) ;
#186 = UNCERTAINTY_MEASURE_WITH_UNIT (LENGTH_MEASURE( 1.000000000000000082E-05 ), #80, 'distance_accuracy_value', 'NONE');
#187 = DIRECTION ( 'NONE',  ( -3.491481338843133355E-15, 1.224646799147353207E-16, -1.000000000000000000 ) ) ;
#188 = EDGE_LOOP ( 'NONE', ( #66 ) ) ;
#189 = ADVANCED_FACE ( 'NONE', ( #94 ), #73, .F. ) ;
#190 = CARTESIAN_POINT ( 'NONE',  ( 1.745740669421566678E-14, 0.4049999999999993050, 5.000000000000000000 ) ) ;
#191 = ORIENTED_EDGE ( 'NONE', *, *, #268, .F. ) ;
#192 = AXIS2_PLACEMENT_3D ( 'NONE', #133, #187, #158 ) ;
#193 = CC_DESIGN_PERSON_AND_ORGANIZATION_ASSIGNMENT ( #279, #138, ( #76 ) ) ;
#194 = APPROVAL_PERSON_ORGANIZATION ( #43, #184, #225 ) ;
#195 = APPLICATION_PROTOCOL_DEFINITION ( 'international standard', 'config_control_design', 1994, #294 ) ;
#196 = CARTESIAN_POINT ( 'NONE',  ( 1.316288464743861212E-13, 1.499999999999998668, 37.69999999999999574 ) ) ;
#197 = FACE_OUTER_BOUND ( 'NONE', #10, .T. ) ;
#198 = DIRECTION ( 'NONE',  ( -3.491481338843133355E-15, 1.224646799147353207E-16, -1.000000000000000000 ) ) ;
#199 =( GEOMETRIC_REPRESENTATION_CONTEXT ( 3 ) GLOBAL_UNCERTAINTY_ASSIGNED_CONTEXT ( ( #186 ) ) GLOBAL_UNIT_ASSIGNED_CONTEXT ( ( #80, #170, #30 ) ) REPRESENTATION_CONTEXT ( 'NONE', 'WORKASPACE' ) );
#200 = CARTESIAN_POINT ( 'NONE',  ( 5.440958946549379771E-14, -1.908431496985074453E-15, 15.58352578322009663 ) ) ;
#201 = DIRECTION ( 'NONE',  ( -3.491481338843133355E-15, 1.224646799147353207E-16, -1.000000000000000000 ) ) ;
#202 = ADVANCED_FACE ( 'NONE', ( #255 ), #298, .T. ) ;
#203 = CARTESIAN_POINT ( 'NONE',  ( 1.766906650175510155E-14, -6.197474262447513462E-16, 5.060621778264914106 ) ) ;
#204 = CIRCLE ( 'NONE', #230, 0.4049999999999999156 ) ;
#205 = CARTESIAN_POINT ( 'NONE',  ( 3.142333204958820020E-14, -1.301042606982605321E-15, 9.000000000000000000 ) ) ;
#206 = DATE_AND_TIME ( #208, #12 ) ;
#207 = DIRECTION ( 'NONE',  ( 4.275831445896959482E-31, 1.000000000000000000, 1.224646799147353207E-16 ) ) ;
#208 = CALENDAR_DATE ( 2021, 1, 12 ) ;
#209 = DIRECTION ( 'NONE',  ( 4.275831445896958607E-31, 1.000000000000000000, 1.224646799147353207E-16 ) ) ;
#210 = DIRECTION ( 'NONE',  ( -3.491481338843133355E-15, 1.224646799147353207E-16, -1.000000000000000000 ) ) ;
#211 = AXIS2_PLACEMENT_3D ( 'NONE', #118, #22, #299 ) ;
#212 = VERTEX_POINT ( 'NONE', #190 ) ;
#213 = PRODUCT ( '965168', '965168', '', ( #288 ) ) ;
#214 = EDGE_LOOP ( 'NONE', ( #32 ) ) ;
#215 = EDGE_CURVE ( 'NONE', #101, #101, #31, .T. ) ;
#216 = CARTESIAN_POINT ( 'NONE',  ( 3.142333204958820020E-14, 0.3699999999999983857, 9.000000000000000000 ) ) ;
#217 = EDGE_CURVE ( 'NONE', #106, #106, #290, .T. ) ;
#218 = EDGE_LOOP ( 'NONE', ( #265 ) ) ;
#219 = CARTESIAN_POINT ( 'NONE',  ( 3.142333204958820020E-14, -1.102182119232617714E-15, 9.000000000000000000 ) ) ;
#220 = CIRCLE ( 'NONE', #82, 0.4049999999999999156 ) ;
#221 = DIRECTION ( 'NONE',  ( 0.0000000000000000000, 1.000000000000000000, 0.0000000000000000000 ) ) ;
#222 = CARTESIAN_POINT ( 'NONE',  ( 1.326762908760390423E-13, -4.653657836759941941E-15, 38.00000000000000000 ) ) ;
#223 = FACE_BOUND ( 'NONE', #261, .T. ) ;
#224 = ADVANCED_BREP_SHAPE_REPRESENTATION ( '965168', ( #84, #177, #132 ), #199 ) ;
#225 = APPROVAL_ROLE ( '' ) ;
#226 = AXIS2_PLACEMENT_3D ( 'NONE', #107, #198, #88 ) ;
#227 = PLANE ( 'NONE',  #120 ) ;
#228 = PERSON_AND_ORGANIZATION_ROLE ( 'creator' ) ;
#229 = DATE_AND_TIME ( #52, #239 ) ;
#230 = AXIS2_PLACEMENT_3D ( 'NONE', #176, #270, #68 ) ;
#231 = FACE_OUTER_BOUND ( 'NONE', #83, .T. ) ;
#232 = CC_DESIGN_DATE_AND_TIME_ASSIGNMENT ( #150, #246, ( #245 ) ) ;
#233 = CARTESIAN_POINT ( 'NONE',  ( 1.745740669421566678E-14, 3.037013559890251666E-33, 5.000000000000000000 ) ) ;
#234 = CARTESIAN_POINT ( 'NONE',  ( 0.0000000000000000000, 0.0000000000000000000, 0.0000000000000000000 ) ) ;
#235 = CALENDAR_DATE ( 2021, 1, 12 ) ;
#236 = ADVANCED_FACE ( 'NONE', ( #51, #183 ), #157, .T. ) ;
#237 = CC_DESIGN_APPROVAL ( #184, ( #76 ) ) ;
#238 = APPROVAL_DATE_TIME ( #229, #184 ) ;
#239 = LOCAL_TIME ( 11, 40, 30.00000000000000000, #18 ) ;
#240 = CARTESIAN_POINT ( 'NONE',  ( 1.745740669421566678E-14, 0.4049999999999993050, 5.000000000000000000 ) ) ;
#241 = DIRECTION ( 'NONE',  ( -3.491481338843133355E-15, 1.224646799147353207E-16, -1.000000000000000000 ) ) ;
#242 = ADVANCED_FACE ( 'NONE', ( #53, #136 ), #140, .T. ) ;
#243 = DIRECTION ( 'NONE',  ( -3.491481338843133355E-15, 1.224646799147353207E-16, -1.000000000000000000 ) ) ;
#244 = EDGE_LOOP ( 'NONE', ( #42 ) ) ;
#245 = PRODUCT_DEFINITION ( 'UNKNOWN', '', #76, #28 ) ;
#246 = DATE_TIME_ROLE ( 'creation_date' ) ;
#247 = ORIENTED_EDGE ( 'NONE', *, *, #215, .F. ) ;
#248 = VERTEX_POINT ( 'NONE', #112 ) ;
#249 = FACE_OUTER_BOUND ( 'NONE', #39, .T. ) ;
#250 = DIRECTION ( 'NONE',  ( -3.491481338843133355E-15, 1.224646799147353207E-16, -1.000000000000000000 ) ) ;
#251 = ADVANCED_FACE ( 'NONE', ( #231, #139 ), #24, .T. ) ;
#252 = AXIS2_PLACEMENT_3D ( 'NONE', #72, #46, #301 ) ;
#253 = DIRECTION ( 'NONE',  ( 3.491481338843133355E-15, -1.224646799147353207E-16, 1.000000000000000000 ) ) ;
#254 = LOCAL_TIME ( 11, 40, 30.00000000000000000, #95 ) ;
#255 = FACE_OUTER_BOUND ( 'NONE', #286, .T. ) ;
#256 = ADVANCED_FACE ( 'NONE', ( #249 ), #276, .F. ) ;
#257 = APPROVAL_STATUS ( 'not_yet_approved' ) ;
#258 = AXIS2_PLACEMENT_3D ( 'NONE', #287, #289, #267 ) ;
#259 = ORIENTED_EDGE ( 'NONE', *, *, #69, .F. ) ;
#260 = AXIS2_PLACEMENT_3D ( 'NONE', #205, #250, #209 ) ;
#261 = EDGE_LOOP ( 'NONE', ( #247 ) ) ;
#262 = DIRECTION ( 'NONE',  ( 1.000000000000000000, 0.0000000000000000000, 0.0000000000000000000 ) ) ;
#263 = ADVANCED_FACE ( 'NONE', ( #159 ), #227, .F. ) ;
#264 = EDGE_LOOP ( 'NONE', ( #175 ) ) ;
#265 = ORIENTED_EDGE ( 'NONE', *, *, #63, .T. ) ;
#266 = AXIS2_PLACEMENT_3D ( 'NONE', #200, #292, #90 ) ;
#267 = DIRECTION ( 'NONE',  ( 0.0000000000000000000, 1.000000000000000000, 0.0000000000000000000 ) ) ;
#268 = EDGE_CURVE ( 'NONE', #212, #212, #220, .T. ) ;
#269 = CALENDAR_DATE ( 2021, 1, 12 ) ;
#270 = DIRECTION ( 'NONE',  ( -3.491481338843133355E-15, 1.224646799147353207E-16, -1.000000000000000000 ) ) ;
#271 = PERSON_AND_ORGANIZATION_ROLE ( 'design_owner' ) ;
#272 = DIRECTION ( 'NONE',  ( -3.491481338843133355E-15, 1.224646799147353207E-16, -1.000000000000000000 ) ) ;
#273 = DIRECTION ( 'NONE',  ( -3.491481338843133355E-15, 1.224646799147353207E-16, -1.000000000000000000 ) ) ;
#274 = SECURITY_CLASSIFICATION_LEVEL ( 'unclassified' ) ;
#275 = DIRECTION ( 'NONE',  ( 0.0000000000000000000, 1.000000000000000000, 0.0000000000000000000 ) ) ;
#276 = PLANE ( 'NONE',  #252 ) ;
#277 = CARTESIAN_POINT ( 'NONE',  ( 1.745740669421566678E-14, -6.123233995736766282E-16, 5.000000000000000000 ) ) ;
#278 = CARTESIAN_POINT ( 'NONE',  ( 1.326762908760390423E-13, 1.199999999999998845, 38.00000000000000000 ) ) ;
#279 = PERSON_AND_ORGANIZATION ( #113, #21 ) ;
#280 = AXIS2_PLACEMENT_3D ( 'NONE', #181, #77, #275 ) ;
#281 = APPROVAL ( #65, 'UNSPECIFIED' ) ;
#282 = EDGE_LOOP ( 'NONE', ( #59 ) ) ;
#283 = CLOSED_SHELL ( 'NONE', ( #189, #40, #251, #179, #126, #242, #33, #256 ) ) ;
#284 = CONICAL_SURFACE ( 'NONE', #124, 0.4049999999999993605, 0.5235987755982919323 ) ;
#285 = CC_DESIGN_PERSON_AND_ORGANIZATION_ASSIGNMENT ( #100, #29, ( #76 ) ) ;
#286 = EDGE_LOOP ( 'NONE', ( #191 ) ) ;
#287 = CARTESIAN_POINT ( 'NONE',  ( 5.440958946549379771E-14, -1.908431496985074453E-15, 15.58352578322009663 ) ) ;
#288 = MECHANICAL_CONTEXT ( 'NONE', #294, 'mechanical' ) ;
#289 = DIRECTION ( 'NONE',  ( -3.491481338843133355E-15, 1.224646799147353207E-16, -1.000000000000000000 ) ) ;
#290 = CIRCLE ( 'NONE', #192, 0.4049999999999993605 ) ;
#291 = COORDINATED_UNIVERSAL_TIME_OFFSET ( 1, 0, .AHEAD. ) ;
#292 = DIRECTION ( 'NONE',  ( 3.491481338843133355E-15, -1.224646799147353207E-16, 1.000000000000000000 ) ) ;
#293 = EDGE_LOOP ( 'NONE', ( #259 ) ) ;
#294 = APPLICATION_CONTEXT ( 'configuration controlled 3d designs of mechanical parts and assemblies' ) ;
#295 = VERTEX_POINT ( 'NONE', #78 ) ;
#296 = APPROVAL ( #257, 'UNSPECIFIED' ) ;
#297 = CIRCLE ( 'NONE', #58, 0.3699999999999989408 ) ;
#298 = PLANE ( 'NONE',  #141 ) ;
#299 = DIRECTION ( 'NONE',  ( 4.275831445896958607E-31, 1.000000000000000000, 1.224646799147353207E-16 ) ) ;
#300 = DATE_TIME_ROLE ( 'classification_date' ) ;
#301 = DIRECTION ( 'NONE',  ( 4.275831445896958607E-31, 1.000000000000000000, 1.224646799147353207E-16 ) ) ;
#302 = CC_DESIGN_PERSON_AND_ORGANIZATION_ASSIGNMENT ( #41, #228, ( #245 ) ) ;
#303 = AXIS2_PLACEMENT_3D ( 'NONE', #219, #241, #13 ) ;
ENDSEC;
END-ISO-10303-21;
