ISO-10303-21;
HEADER;
FILE_DESCRIPTION (( 'STEP AP203' ),
    '1' );
FILE_NAME ('965167.step',
    '2021-12-01T07:27:28',
    ( '' ),
    ( '' ),
    'SwSTEP 2.0',
    'SolidWorks 2019',
    '' );
FILE_SCHEMA (( 'CONFIG_CONTROL_DESIGN' ));
ENDSEC;

DATA;
#1 = AXIS2_PLACEMENT_3D ( 'NONE', #2, #119, #266 ) ;
#2 = CARTESIAN_POINT ( 'NONE',  ( 0.0000000000000000000, 0.0000000000000000000, 0.0000000000000000000 ) ) ;
#3 = DIRECTION ( 'NONE',  ( 3.491481338843133355E-15, -1.224646799147353207E-16, 1.000000000000000000 ) ) ;
#4 = EDGE_LOOP ( 'NONE', ( #120 ) ) ;
#5 = EDGE_CURVE ( 'NONE', #259, #259, #107, .T. ) ;
#6 = DIRECTION ( 'NONE',  ( 0.0000000000000000000, 1.000000000000000000, 0.0000000000000000000 ) ) ;
#7 = CARTESIAN_POINT ( 'NONE',  ( 1.326762908760390423E-13, -4.653657836759941941E-15, 38.00000000000000000 ) ) ;
#8 = CC_DESIGN_PERSON_AND_ORGANIZATION_ASSIGNMENT ( #38, #80, ( #263 ) ) ;
#9 = CARTESIAN_POINT ( 'NONE',  ( 1.326762908760390423E-13, 8.998558695971103225E-33, 38.00000000000000000 ) ) ;
#10 = DIRECTION ( 'NONE',  ( -3.491481338843133355E-15, 1.224646799147353207E-16, -1.000000000000000000 ) ) ;
#11 = EDGE_LOOP ( 'NONE', ( #179 ) ) ;
#12 = DIRECTION ( 'NONE',  ( 1.000000000000000000, 0.0000000000000000000, 0.0000000000000000000 ) ) ;
#13 = UNCERTAINTY_MEASURE_WITH_UNIT (LENGTH_MEASURE( 1.000000000000000082E-05 ), #66, 'distance_accuracy_value', 'NONE');
#14 = CC_DESIGN_PERSON_AND_ORGANIZATION_ASSIGNMENT ( #209, #124, ( #61 ) ) ;
#15 = AXIS2_PLACEMENT_3D ( 'NONE', #56, #230, #29 ) ;
#16 = PERSON_AND_ORGANIZATION ( #265, #180 ) ;
#17 = DIRECTION ( 'NONE',  ( 3.491481338843133355E-15, -1.224646799147353207E-16, 1.000000000000000000 ) ) ;
#18 = CALENDAR_DATE ( 2021, 1, 12 ) ;
#19 = DATE_AND_TIME ( #65, #254 ) ;
#20 = DIRECTION ( 'NONE',  ( 0.0000000000000000000, 1.000000000000000000, 0.0000000000000000000 ) ) ;
#21 = AXIS2_PLACEMENT_3D ( 'NONE', #157, #183, #241 ) ;
#22 = CARTESIAN_POINT ( 'NONE',  ( 1.316288464743861212E-13, 1.499999999999998668, 37.69999999999999574 ) ) ;
#23 = AXIS2_PLACEMENT_3D ( 'NONE', #7, #253, #20 ) ;
#24 = APPLICATION_PROTOCOL_DEFINITION ( 'international standard', 'config_control_design', 1994, #152 ) ;
#25 = CARTESIAN_POINT ( 'NONE',  ( 1.396592535537253342E-14, 2.662073614224786580E-33, 4.000000000000000000 ) ) ;
#26 = EDGE_CURVE ( 'NONE', #236, #236, #229, .T. ) ;
#27 = ORIENTED_EDGE ( 'NONE', *, *, #108, .F. ) ;
#28 = TOROIDAL_SURFACE ( 'NONE', #82, 2.354999999999999982, 2.000000000000000000 ) ;
#29 = DIRECTION ( 'NONE',  ( 0.0000000000000000000, 1.000000000000000000, 0.0000000000000000000 ) ) ;
#30 = EDGE_LOOP ( 'NONE', ( #33 ) ) ;
#31 = PERSON_AND_ORGANIZATION ( #265, #180 ) ;
#32 = DIRECTION ( 'NONE',  ( -3.491481338843133355E-15, 1.224646799147353207E-16, -1.000000000000000000 ) ) ;
#33 = ORIENTED_EDGE ( 'NONE', *, *, #252, .T. ) ;
#34 = FACE_OUTER_BOUND ( 'NONE', #227, .T. ) ;
#35 = PERSON_AND_ORGANIZATION_ROLE ( 'creator' ) ;
#36 = DIRECTION ( 'NONE',  ( 0.0000000000000000000, 0.0000000000000000000, 1.000000000000000000 ) ) ;
#37 = APPROVAL_PERSON_ORGANIZATION ( #189, #105, #78 ) ;
#38 = PERSON_AND_ORGANIZATION ( #265, #180 ) ;
#39 = AXIS2_PLACEMENT_3D ( 'NONE', #116, #73, #205 ) ;
#40 = APPROVAL_STATUS ( 'not_yet_approved' ) ;
#41 = PERSON_AND_ORGANIZATION ( #265, #180 ) ;
#42 = CARTESIAN_POINT ( 'NONE',  ( 1.396592535537253342E-14, 0.3549999999999990385, 4.000000000000000000 ) ) ;
#43 = COORDINATED_UNIVERSAL_TIME_OFFSET ( 1, 0, .AHEAD. ) ;
#44 = FACE_OUTER_BOUND ( 'NONE', #233, .T. ) ;
#45 =( GEOMETRIC_REPRESENTATION_CONTEXT ( 3 ) GLOBAL_UNCERTAINTY_ASSIGNED_CONTEXT ( ( #13 ) ) GLOBAL_UNIT_ASSIGNED_CONTEXT ( ( #66, #239, #269 ) ) REPRESENTATION_CONTEXT ( 'NONE', 'WORKASPACE' ) );
#46 = APPROVAL_DATE_TIME ( #172, #148 ) ;
#47 = MANIFOLD_SOLID_BREP ( 'Corps-Déplacer/Copier1[2]', #133 ) ;
#48 = CARTESIAN_POINT ( 'NONE',  ( 3.491481338843134341E-16, 0.3549999999999990941, 0.1000000000000000194 ) ) ;
#49 = FACE_OUTER_BOUND ( 'NONE', #125, .T. ) ;
#50 = DIRECTION ( 'NONE',  ( -3.491481338843133355E-15, 1.224646799147353207E-16, -1.000000000000000000 ) ) ;
#51 = ORIENTED_EDGE ( 'NONE', *, *, #108, .T. ) ;
#52 = FACE_OUTER_BOUND ( 'NONE', #165, .T. ) ;
#53 = DIRECTION ( 'NONE',  ( -4.275831445896958607E-31, -1.000000000000000000, -1.224646799147353207E-16 ) ) ;
#54 = ORIENTED_EDGE ( 'NONE', *, *, #26, .F. ) ;
#55 = AXIS2_PLACEMENT_3D ( 'NONE', #112, #160, #202 ) ;
#56 = CARTESIAN_POINT ( 'NONE',  ( 2.793185071074506684E-14, -9.797174393178825657E-16, 8.000000000000000000 ) ) ;
#57 = DIRECTION ( 'NONE',  ( 0.0000000000000000000, 1.000000000000000000, 0.0000000000000000000 ) ) ;
#58 = EDGE_LOOP ( 'NONE', ( #243 ) ) ;
#59 = COORDINATED_UNIVERSAL_TIME_OFFSET ( 1, 0, .AHEAD. ) ;
#60 = SECURITY_CLASSIFICATION ( '', '', #216 ) ;
#61 = PRODUCT ( '965167', '965167', '', ( #146 ) ) ;
#62 = PERSON_AND_ORGANIZATION ( #265, #180 ) ;
#63 = DIRECTION ( 'NONE',  ( 0.0000000000000000000, 1.000000000000000000, 0.0000000000000000000 ) ) ;
#64 = VERTEX_POINT ( 'NONE', #151 ) ;
#65 = CALENDAR_DATE ( 2021, 1, 12 ) ;
#66 =( LENGTH_UNIT ( ) NAMED_UNIT ( * ) SI_UNIT ( .MILLI., .METRE. ) );
#67 = CC_DESIGN_SECURITY_CLASSIFICATION ( #60, ( #263 ) ) ;
#68 = FACE_OUTER_BOUND ( 'NONE', #163, .T. ) ;
#69 = ORIENTED_EDGE ( 'NONE', *, *, #5, .F. ) ;
#70 = AXIS2_PLACEMENT_3D ( 'NONE', #175, #219, #198 ) ;
#71 = DIRECTION ( 'NONE',  ( 3.491481338843133355E-15, -1.224646799147353207E-16, 1.000000000000000000 ) ) ;
#72 = EDGE_LOOP ( 'NONE', ( #211 ) ) ;
#73 = DIRECTION ( 'NONE',  ( 3.491481338843133355E-15, -1.224646799147353207E-16, 1.000000000000000000 ) ) ;
#74 = CARTESIAN_POINT ( 'NONE',  ( 1.396592535537253342E-14, -4.898587196589412829E-16, 4.000000000000000000 ) ) ;
#75 = EDGE_CURVE ( 'NONE', #149, #149, #103, .T. ) ;
#76 = EDGE_LOOP ( 'NONE', ( #158 ) ) ;
#77 = DATE_AND_TIME ( #190, #132 ) ;
#78 = APPROVAL_ROLE ( '' ) ;
#79 = AXIS2_PLACEMENT_3D ( 'NONE', #232, #32, #121 ) ;
#80 = PERSON_AND_ORGANIZATION_ROLE ( 'creator' ) ;
#81 = ADVANCED_FACE ( 'NONE', ( #34 ), #267, .F. ) ;
#82 = AXIS2_PLACEMENT_3D ( 'NONE', #113, #200, #178 ) ;
#83 = CARTESIAN_POINT ( 'NONE',  ( 0.0000000000000000000, 0.0000000000000000000, 0.0000000000000000000 ) ) ;
#84 = PERSON_AND_ORGANIZATION_ROLE ( 'design_supplier' ) ;
#85 = FACE_OUTER_BOUND ( 'NONE', #246, .T. ) ;
#86 = CLOSED_SHELL ( 'NONE', ( #81, #275, #111, #257, #177, #97, #187 ) ) ;
#87 = DIRECTION ( 'NONE',  ( -3.491481338843133355E-15, 1.224646799147353207E-16, -1.000000000000000000 ) ) ;
#88 = FACE_OUTER_BOUND ( 'NONE', #142, .T. ) ;
#89 = CARTESIAN_POINT ( 'NONE',  ( 0.0000000000000000000, 0.0000000000000000000, 0.0000000000000000000 ) ) ;
#90 = FACE_OUTER_BOUND ( 'NONE', #58, .T. ) ;
#91 = CC_DESIGN_APPROVAL ( #148, ( #60 ) ) ;
#92 = DIRECTION ( 'NONE',  ( -4.068866079691353627E-31, -1.000000000000000000, -1.145283985019901942E-16 ) ) ;
#93 = PLANE ( 'NONE',  #278 ) ;
#94 = DIRECTION ( 'NONE',  ( -3.491481338843133355E-15, 1.224646799147353207E-16, -1.000000000000000000 ) ) ;
#95 = DIRECTION ( 'NONE',  ( 4.275831445896958607E-31, 1.000000000000000000, 1.224646799147353207E-16 ) ) ;
#96 = CARTESIAN_POINT ( 'NONE',  ( -3.246870064720315069E-32, 1.138848713802545941E-33, -9.299405466094033761E-18 ) ) ;
#97 = ADVANCED_FACE ( 'NONE', ( #203, #137 ), #139, .T. ) ;
#98 = AXIS2_PLACEMENT_3D ( 'NONE', #207, #50, #6 ) ;
#99 = APPROVAL_STATUS ( 'not_yet_approved' ) ;
#100 = DATE_TIME_ROLE ( 'creation_date' ) ;
#101 = APPLICATION_PROTOCOL_DEFINITION ( 'international standard', 'config_control_design', 1994, #166 ) ;
#102 = LOCAL_TIME ( 8, 27, 28.00000000000000000, #192 ) ;
#103 = CIRCLE ( 'NONE', #147, 0.3549999999999995381 ) ;
#104 = PERSON_AND_ORGANIZATION_ROLE ( 'classification_officer' ) ;
#105 = APPROVAL ( #273, 'UNSPECIFIED' ) ;
#106 = CARTESIAN_POINT ( 'NONE',  ( 2.793185071074506684E-14, 0.3549999999999989830, 8.000000000000000000 ) ) ;
#107 = CIRCLE ( 'NONE', #126, 0.3853844939755814436 ) ;
#108 = EDGE_CURVE ( 'NONE', #131, #131, #223, .T. ) ;
#109 = PRODUCT_RELATED_PRODUCT_CATEGORY ( 'detail', '', ( #61 ) ) ;
#110 = AXIS2_PLACEMENT_3D ( 'NONE', #96, #94, #186 ) ;
#111 = ADVANCED_FACE ( 'NONE', ( #197, #88 ), #28, .F. ) ;
#112 = CARTESIAN_POINT ( 'NONE',  ( 3.491481338843132862E-16, -1.224646799147352961E-17, 0.09999999999999997780 ) ) ;
#113 = CARTESIAN_POINT ( 'NONE',  ( 2.793185071074506684E-14, -8.673617379884035472E-16, 8.000000000000000000 ) ) ;
#114 = ORIENTED_EDGE ( 'NONE', *, *, #181, .T. ) ;
#115 = APPROVAL_PERSON_ORGANIZATION ( #62, #148, #129 ) ;
#116 = CARTESIAN_POINT ( 'NONE',  ( -1.623435032360157535E-32, 5.694243569012729704E-34, -4.649702733047016880E-18 ) ) ;
#117 = ORIENTED_EDGE ( 'NONE', *, *, #26, .T. ) ;
#118 = EDGE_CURVE ( 'NONE', #240, #240, #167, .T. ) ;
#119 = DIRECTION ( 'NONE',  ( -3.491481338843133355E-15, 1.224646799147353207E-16, -1.000000000000000000 ) ) ;
#120 = ORIENTED_EDGE ( 'NONE', *, *, #75, .F. ) ;
#121 = DIRECTION ( 'NONE',  ( 4.275831445896958607E-31, 1.000000000000000000, 1.224646799147353207E-16 ) ) ;
#122 = ORIENTED_EDGE ( 'NONE', *, *, #181, .F. ) ;
#123 = PRODUCT_DEFINITION_SHAPE ( 'NONE', 'NONE',  #247 ) ;
#124 = PERSON_AND_ORGANIZATION_ROLE ( 'design_owner' ) ;
#125 = EDGE_LOOP ( 'NONE', ( #51 ) ) ;
#126 = AXIS2_PLACEMENT_3D ( 'NONE', #224, #10, #249 ) ;
#127 = AXIS2_PLACEMENT_3D ( 'NONE', #260, #150, #280 ) ;
#128 = APPROVAL ( #99, 'UNSPECIFIED' ) ;
#129 = APPROVAL_ROLE ( '' ) ;
#130 = CARTESIAN_POINT ( 'NONE',  ( 9.463679131915806782E-32, 0.2972649730810372759, 2.710505431213761085E-17 ) ) ;
#131 = VERTEX_POINT ( 'NONE', #22 ) ;
#132 = LOCAL_TIME ( 8, 27, 28.00000000000000000, #188 ) ;
#133 = CLOSED_SHELL ( 'NONE', ( #201, #159, #220, #268 ) ) ;
#134 = PLANE ( 'NONE',  #39 ) ;
#135 = ORIENTED_EDGE ( 'NONE', *, *, #164, .T. ) ;
#136 = CYLINDRICAL_SURFACE ( 'NONE', #1, 1.500000000000000222 ) ;
#137 = FACE_BOUND ( 'NONE', #76, .T. ) ;
#138 = FACE_OUTER_BOUND ( 'NONE', #185, .T. ) ;
#139 = CONICAL_SURFACE ( 'NONE', #23, 1.200000000000003286, 0.7853981633974453924 ) ;
#140 = APPROVAL_ROLE ( '' ) ;
#141 = CYLINDRICAL_SURFACE ( 'NONE', #79, 0.3549999999999993161 ) ;
#142 = EDGE_LOOP ( 'NONE', ( #250 ) ) ;
#143 = CALENDAR_DATE ( 2021, 1, 12 ) ;
#144 = CC_DESIGN_APPROVAL ( #128, ( #247 ) ) ;
#145 = CIRCLE ( 'NONE', #21, 1.200000000000003286 ) ;
#146 = MECHANICAL_CONTEXT ( 'NONE', #152, 'mechanical' ) ;
#147 = AXIS2_PLACEMENT_3D ( 'NONE', #74, #161, #57 ) ;
#148 = APPROVAL ( #40, 'UNSPECIFIED' ) ;
#149 = VERTEX_POINT ( 'NONE', #173 ) ;
#150 = DIRECTION ( 'NONE',  ( -3.491481338843133355E-15, 1.224646799147353207E-16, -1.000000000000000000 ) ) ;
#151 = CARTESIAN_POINT ( 'NONE',  ( 1.326762908760390423E-13, 1.199999999999998845, 38.00000000000000000 ) ) ;
#152 = APPLICATION_CONTEXT ( 'configuration controlled 3d designs of mechanical parts and assemblies' ) ;
#153 = AXIS2_PLACEMENT_3D ( 'NONE', #89, #36, #12 ) ;
#154 = CARTESIAN_POINT ( 'NONE',  ( 5.121512574625840472E-14, 1.499999999999995559, 14.66859501051436432 ) ) ;
#155 = CC_DESIGN_DATE_AND_TIME_ASSIGNMENT ( #214, #100, ( #247 ) ) ;
#156 = CIRCLE ( 'NONE', #182, 0.3549999999999995381 ) ;
#157 = CARTESIAN_POINT ( 'NONE',  ( 1.326762908760390423E-13, -4.653657836759941941E-15, 38.00000000000000000 ) ) ;
#158 = ORIENTED_EDGE ( 'NONE', *, *, #168, .T. ) ;
#159 = ADVANCED_FACE ( 'NONE', ( #245, #138 ), #191, .T. ) ;
#160 = DIRECTION ( 'NONE',  ( -3.491481338843133355E-15, 1.224646799147353207E-16, -1.000000000000000000 ) ) ;
#161 = DIRECTION ( 'NONE',  ( -3.491481338843133355E-15, 1.224646799147353207E-16, -1.000000000000000000 ) ) ;
#162 = FACE_OUTER_BOUND ( 'NONE', #72, .T. ) ;
#163 = EDGE_LOOP ( 'NONE', ( #117 ) ) ;
#164 = EDGE_CURVE ( 'NONE', #279, #279, #215, .T. ) ;
#165 = EDGE_LOOP ( 'NONE', ( #122 ) ) ;
#166 = APPLICATION_CONTEXT ( 'configuration controlled 3d designs of mechanical parts and assemblies' ) ;
#167 = CIRCLE ( 'NONE', #55, 0.3549999999999990941 ) ;
#168 = EDGE_CURVE ( 'NONE', #64, #64, #145, .T. ) ;
#169 = DATE_AND_TIME ( #276, #102 ) ;
#170 = CARTESIAN_POINT ( 'NONE',  ( 5.121512574625840472E-14, -1.796384792761525277E-15, 14.66859501051436432 ) ) ;
#171 = LOCAL_TIME ( 8, 27, 28.00000000000000000, #59 ) ;
#172 = DATE_AND_TIME ( #18, #235 ) ;
#173 = CARTESIAN_POINT ( 'NONE',  ( 1.396592535537253342E-14, 0.3549999999999990385, 4.000000000000000000 ) ) ;
#174 = VERTEX_POINT ( 'NONE', #154 ) ;
#175 = CARTESIAN_POINT ( 'NONE',  ( 1.396592535537253342E-14, 2.662073614224786580E-33, 4.000000000000000000 ) ) ;
#176 = DIRECTION ( 'NONE',  ( -3.491481338843133355E-15, 1.224646799147353207E-16, -1.000000000000000000 ) ) ;
#177 = ADVANCED_FACE ( 'NONE', ( #52, #49 ), #136, .T. ) ;
#178 = DIRECTION ( 'NONE',  ( 4.275831445896959482E-31, 1.000000000000000000, 1.224646799147353207E-16 ) ) ;
#179 = ORIENTED_EDGE ( 'NONE', *, *, #164, .F. ) ;
#180 = ORGANIZATION ( 'UNSPECIFIED', 'UNSPECIFIED', '' ) ;
#181 = EDGE_CURVE ( 'NONE', #174, #174, #242, .T. ) ;
#182 = AXIS2_PLACEMENT_3D ( 'NONE', #210, #87, #63 ) ;
#183 = DIRECTION ( 'NONE',  ( -3.491481338843133355E-15, 1.224646799147353207E-16, -1.000000000000000000 ) ) ;
#184 = EDGE_LOOP ( 'NONE', ( #114 ) ) ;
#185 = EDGE_LOOP ( 'NONE', ( #231 ) ) ;
#186 = DIRECTION ( 'NONE',  ( 4.275831445896958607E-31, 1.000000000000000000, 1.224646799147353454E-16 ) ) ;
#187 = ADVANCED_FACE ( 'NONE', ( #90 ), #93, .F. ) ;
#188 = COORDINATED_UNIVERSAL_TIME_OFFSET ( 1, 0, .AHEAD. ) ;
#189 = PERSON_AND_ORGANIZATION ( #265, #180 ) ;
#190 = CALENDAR_DATE ( 2021, 1, 12 ) ;
#191 = CONICAL_SURFACE ( 'NONE', #222, 0.3549999999999990941, 0.5235987755982930425 ) ;
#192 = COORDINATED_UNIVERSAL_TIME_OFFSET ( 1, 0, .AHEAD. ) ;
#193 = FACE_OUTER_BOUND ( 'NONE', #184, .T. ) ;
#194 = AXIS2_PLACEMENT_3D ( 'NONE', #170, #17, #196 ) ;
#195 = FACE_BOUND ( 'NONE', #208, .T. ) ;
#196 = DIRECTION ( 'NONE',  ( 0.0000000000000000000, -1.000000000000000000, 0.0000000000000000000 ) ) ;
#197 = FACE_OUTER_BOUND ( 'NONE', #11, .T. ) ;
#198 = DIRECTION ( 'NONE',  ( -4.275831445896958607E-31, -1.000000000000000000, -1.224646799147353207E-16 ) ) ;
#199 = CC_DESIGN_DATE_AND_TIME_ASSIGNMENT ( #169, #258, ( #60 ) ) ;
#200 = DIRECTION ( 'NONE',  ( -3.491481338843133355E-15, 1.224646799147353207E-16, -1.000000000000000000 ) ) ;
#201 = ADVANCED_FACE ( 'NONE', ( #68 ), #134, .F. ) ;
#202 = DIRECTION ( 'NONE',  ( 4.068866079691353627E-31, 1.000000000000000000, 1.145283985019901942E-16 ) ) ;
#203 = FACE_OUTER_BOUND ( 'NONE', #206, .T. ) ;
#204 = APPROVAL_PERSON_ORGANIZATION ( #31, #128, #140 ) ;
#205 = DIRECTION ( 'NONE',  ( -4.275831445896958607E-31, -1.000000000000000000, -1.224646799147353207E-16 ) ) ;
#206 = EDGE_LOOP ( 'NONE', ( #27 ) ) ;
#207 = CARTESIAN_POINT ( 'NONE',  ( 5.121512574625840472E-14, -1.796384792761525277E-15, 14.66859501051436432 ) ) ;
#208 = EDGE_LOOP ( 'NONE', ( #69 ) ) ;
#209 = PERSON_AND_ORGANIZATION ( #265, #180 ) ;
#210 = CARTESIAN_POINT ( 'NONE',  ( 1.396592535537253342E-14, -4.898587196589412829E-16, 4.000000000000000000 ) ) ;
#211 = ORIENTED_EDGE ( 'NONE', *, *, #118, .F. ) ;
#212 = CC_DESIGN_PERSON_AND_ORGANIZATION_ASSIGNMENT ( #251, #35, ( #247 ) ) ;
#213 = AXIS2_PLACEMENT_3D ( 'NONE', #25, #71, #53 ) ;
#214 = DATE_AND_TIME ( #143, #171 ) ;
#215 = CIRCLE ( 'NONE', #15, 0.3549999999999999822 ) ;
#216 = SECURITY_CLASSIFICATION_LEVEL ( 'unclassified' ) ;
#217 = COORDINATED_UNIVERSAL_TIME_OFFSET ( 1, 0, .AHEAD. ) ;
#218 = CONICAL_SURFACE ( 'NONE', #194, 1.499999999999997113, 0.1745329251994260367 ) ;
#219 = DIRECTION ( 'NONE',  ( 3.491481338843133355E-15, -1.224646799147353207E-16, 1.000000000000000000 ) ) ;
#220 = ADVANCED_FACE ( 'NONE', ( #162, #248 ), #141, .T. ) ;
#221 = CARTESIAN_POINT ( 'NONE',  ( 2.914442945444142440E-14, 0.3853844939755803889, 8.347296355333845952 ) ) ;
#222 = AXIS2_PLACEMENT_3D ( 'NONE', #270, #3, #92 ) ;
#223 = CIRCLE ( 'NONE', #127, 1.500000000000003331 ) ;
#224 = CARTESIAN_POINT ( 'NONE',  ( 2.914442945444142440E-14, -1.022248976309396081E-15, 8.347296355333845952 ) ) ;
#225 = CC_DESIGN_PERSON_AND_ORGANIZATION_ASSIGNMENT ( #16, #104, ( #60 ) ) ;
#226 = DIRECTION ( 'NONE',  ( -3.491481338843133355E-15, 1.224646799147353207E-16, -1.000000000000000000 ) ) ;
#227 = EDGE_LOOP ( 'NONE', ( #272 ) ) ;
#228 = CC_DESIGN_APPROVAL ( #105, ( #263 ) ) ;
#229 = CIRCLE ( 'NONE', #110, 0.2972649730810372759 ) ;
#230 = DIRECTION ( 'NONE',  ( -3.491481338843133355E-15, 1.224646799147353207E-16, -1.000000000000000000 ) ) ;
#231 = ORIENTED_EDGE ( 'NONE', *, *, #118, .T. ) ;
#232 = CARTESIAN_POINT ( 'NONE',  ( 0.0000000000000000000, 0.0000000000000000000, 0.0000000000000000000 ) ) ;
#233 = EDGE_LOOP ( 'NONE', ( #271 ) ) ;
#234 = MANIFOLD_SOLID_BREP ( 'Corps-Déplacer/Copier1[1]', #86 ) ;
#235 = LOCAL_TIME ( 8, 27, 28.00000000000000000, #217 ) ;
#236 = VERTEX_POINT ( 'NONE', #130 ) ;
#237 = VERTEX_POINT ( 'NONE', #42 ) ;
#238 = DESIGN_CONTEXT ( 'detailed design', #166, 'design' ) ;
#239 =( NAMED_UNIT ( * ) PLANE_ANGLE_UNIT ( ) SI_UNIT ( $, .RADIAN. ) );
#240 = VERTEX_POINT ( 'NONE', #48 ) ;
#241 = DIRECTION ( 'NONE',  ( 0.0000000000000000000, 1.000000000000000000, 0.0000000000000000000 ) ) ;
#242 = CIRCLE ( 'NONE', #98, 1.499999999999997113 ) ;
#243 = ORIENTED_EDGE ( 'NONE', *, *, #168, .F. ) ;
#244 = EDGE_LOOP ( 'NONE', ( #54 ) ) ;
#245 = FACE_BOUND ( 'NONE', #244, .T. ) ;
#246 = EDGE_LOOP ( 'NONE', ( #135 ) ) ;
#247 = PRODUCT_DEFINITION ( 'UNKNOWN', '', #263, #238 ) ;
#248 = FACE_OUTER_BOUND ( 'NONE', #30, .T. ) ;
#249 = DIRECTION ( 'NONE',  ( 0.0000000000000000000, 1.000000000000000000, 0.0000000000000000000 ) ) ;
#250 = ORIENTED_EDGE ( 'NONE', *, *, #5, .T. ) ;
#251 = PERSON_AND_ORGANIZATION ( #265, #180 ) ;
#252 = EDGE_CURVE ( 'NONE', #237, #237, #156, .T. ) ;
#253 = DIRECTION ( 'NONE',  ( -3.491481338843133355E-15, 1.224646799147353207E-16, -1.000000000000000000 ) ) ;
#254 = LOCAL_TIME ( 8, 27, 28.00000000000000000, #43 ) ;
#255 = AXIS2_PLACEMENT_3D ( 'NONE', #83, #176, #262 ) ;
#256 = CC_DESIGN_PERSON_AND_ORGANIZATION_ASSIGNMENT ( #41, #84, ( #263 ) ) ;
#257 = ADVANCED_FACE ( 'NONE', ( #195, #193 ), #218, .T. ) ;
#258 = DATE_TIME_ROLE ( 'classification_date' ) ;
#259 = VERTEX_POINT ( 'NONE', #221 ) ;
#260 = CARTESIAN_POINT ( 'NONE',  ( 1.316288464743861212E-13, -4.616918432785521081E-15, 37.69999999999999574 ) ) ;
#261 = PLANE ( 'NONE',  #70 ) ;
#262 = DIRECTION ( 'NONE',  ( 4.275831445896958607E-31, 1.000000000000000000, 1.224646799147352961E-16 ) ) ;
#263 = PRODUCT_DEFINITION_FORMATION_WITH_SPECIFIED_SOURCE ( 'ANY', '', #61, .NOT_KNOWN. ) ;
#264 = SHAPE_DEFINITION_REPRESENTATION ( #123, #277 ) ;
#265 = PERSON ( 'UNSPECIFIED', 'UNSPECIFIED', 'UNSPECIFIED', ('UNSPECIFIED'), ('UNSPECIFIED'), ('UNSPECIFIED') ) ;
#266 = DIRECTION ( 'NONE',  ( 4.275831445896959482E-31, 1.000000000000000000, 1.224646799147353207E-16 ) ) ;
#267 = PLANE ( 'NONE',  #213 ) ;
#268 = ADVANCED_FACE ( 'NONE', ( #44 ), #261, .T. ) ;
#269 =( NAMED_UNIT ( * ) SI_UNIT ( $, .STERADIAN. ) SOLID_ANGLE_UNIT ( ) );
#270 = CARTESIAN_POINT ( 'NONE',  ( 3.491481338843132862E-16, -1.224646799147352961E-17, 0.09999999999999997780 ) ) ;
#271 = ORIENTED_EDGE ( 'NONE', *, *, #252, .F. ) ;
#272 = ORIENTED_EDGE ( 'NONE', *, *, #75, .T. ) ;
#273 = APPROVAL_STATUS ( 'not_yet_approved' ) ;
#274 = APPROVAL_DATE_TIME ( #77, #128 ) ;
#275 = ADVANCED_FACE ( 'NONE', ( #283, #85 ), #281, .T. ) ;
#276 = CALENDAR_DATE ( 2021, 1, 12 ) ;
#277 = ADVANCED_BREP_SHAPE_REPRESENTATION ( '965167', ( #234, #47, #153 ), #45 ) ;
#278 = AXIS2_PLACEMENT_3D ( 'NONE', #9, #226, #95 ) ;
#279 = VERTEX_POINT ( 'NONE', #106 ) ;
#280 = DIRECTION ( 'NONE',  ( 0.0000000000000000000, 1.000000000000000000, 0.0000000000000000000 ) ) ;
#281 = CYLINDRICAL_SURFACE ( 'NONE', #255, 0.3549999999999997602 ) ;
#282 = APPROVAL_DATE_TIME ( #19, #105 ) ;
#283 = FACE_OUTER_BOUND ( 'NONE', #4, .T. ) ;
ENDSEC;
END-ISO-10303-21;
