ISO-10303-21;
HEADER;
FILE_DESCRIPTION (( 'STEP AP203' ),
    '1' );
FILE_NAME ('964889.step',
    '2021-11-26T14:47:31',
    ( '' ),
    ( '' ),
    'SwSTEP 2.0',
    'SolidWorks 2019',
    '' );
FILE_SCHEMA (( 'CONFIG_CONTROL_DESIGN' ));
ENDSEC;

DATA;
#1 = PRODUCT ( '964889', '964889', '', ( #64 ) ) ;
#2 = CIRCLE ( 'NONE', #270, 1.499999999999997113 ) ;
#3 = PERSON_AND_ORGANIZATION ( #48, #81 ) ;
#4 = APPROVAL_ROLE ( '' ) ;
#5 = ORIENTED_EDGE ( 'NONE', *, *, #96, .F. ) ;
#6 = MANIFOLD_SOLID_BREP ( 'Corps-Déplacer/Copier1[2]', #123 ) ;
#7 = APPROVAL_STATUS ( 'not_yet_approved' ) ;
#8 = PERSON_AND_ORGANIZATION ( #48, #81 ) ;
#9 = AXIS2_PLACEMENT_3D ( 'NONE', #55, #15, #212 ) ;
#10 = ORIENTED_EDGE ( 'NONE', *, *, #138, .T. ) ;
#11 = CC_DESIGN_DATE_AND_TIME_ASSIGNMENT ( #175, #196, ( #164 ) ) ;
#12 = VERTEX_POINT ( 'NONE', #182 ) ;
#13 = CARTESIAN_POINT ( 'NONE',  ( 3.491481338843133355E-16, -1.224646799147352807E-17, 0.09999999999999999167 ) ) ;
#14 = DIRECTION ( 'NONE',  ( -3.491481338843133355E-15, 1.224646799147352961E-16, -1.000000000000000000 ) ) ;
#15 = DIRECTION ( 'NONE',  ( -3.491481338843133355E-15, 1.224646799147352961E-16, -1.000000000000000000 ) ) ;
#16 = DIRECTION ( 'NONE',  ( 4.275831445896957731E-31, 1.000000000000000000, 1.224646799147353207E-16 ) ) ;
#17 = APPROVAL_PERSON_ORGANIZATION ( #242, #233, #4 ) ;
#18 = DIRECTION ( 'NONE',  ( -3.491481338843133355E-15, 1.224646799147352961E-16, -1.000000000000000000 ) ) ;
#19 =( NAMED_UNIT ( * ) SI_UNIT ( $, .STERADIAN. ) SOLID_ANGLE_UNIT ( ) );
#20 =( LENGTH_UNIT ( ) NAMED_UNIT ( * ) SI_UNIT ( .MILLI., .METRE. ) );
#21 = DIRECTION ( 'NONE',  ( 0.0000000000000000000, 0.0000000000000000000, 1.000000000000000000 ) ) ;
#22 = APPROVAL_DATE_TIME ( #124, #29 ) ;
#23 = ORIENTED_EDGE ( 'NONE', *, *, #161, .T. ) ;
#24 = PERSON_AND_ORGANIZATION ( #48, #81 ) ;
#25 = ORIENTED_EDGE ( 'NONE', *, *, #138, .F. ) ;
#26 = PRODUCT_DEFINITION_SHAPE ( 'NONE', 'NONE',  #83 ) ;
#27 = PERSON_AND_ORGANIZATION_ROLE ( 'design_supplier' ) ;
#28 = DIRECTION ( 'NONE',  ( 4.275831445896957731E-31, 1.000000000000000000, 1.224646799147353207E-16 ) ) ;
#29 = APPROVAL ( #46, 'UNSPECIFIED' ) ;
#30 = EDGE_LOOP ( 'NONE', ( #25 ) ) ;
#31 = VERTEX_POINT ( 'NONE', #112 ) ;
#32 = AXIS2_PLACEMENT_3D ( 'NONE', #136, #33, #280 ) ;
#33 = DIRECTION ( 'NONE',  ( 3.491481338843133355E-15, -1.224646799147352961E-16, 1.000000000000000000 ) ) ;
#34 = FACE_OUTER_BOUND ( 'NONE', #69, .T. ) ;
#35 = DIRECTION ( 'NONE',  ( 4.682163560098636944E-31, 1.000000000000000000, 1.317911879034246018E-16 ) ) ;
#36 = PLANE ( 'NONE',  #60 ) ;
#37 = EDGE_CURVE ( 'NONE', #12, #12, #186, .T. ) ;
#38 = CONICAL_SURFACE ( 'NONE', #9, 1.200000000000003286, 0.7853981633974453924 ) ;
#39 = FACE_OUTER_BOUND ( 'NONE', #90, .T. ) ;
#40 = CARTESIAN_POINT ( 'NONE',  ( 4.864439902819927031E-14, 1.499999999999995559, 13.93230961512659682 ) ) ;
#41 = ADVANCED_FACE ( 'NONE', ( #271, #68 ), #154, .T. ) ;
#42 = CIRCLE ( 'NONE', #195, 0.2507649730810377342 ) ;
#43 = DATE_AND_TIME ( #107, #57 ) ;
#44 = CALENDAR_DATE ( 2021, 26, 11 ) ;
#45 = AXIS2_PLACEMENT_3D ( 'NONE', #141, #77, #163 ) ;
#46 = APPROVAL_STATUS ( 'not_yet_approved' ) ;
#47 = EDGE_LOOP ( 'NONE', ( #267 ) ) ;
#48 = PERSON ( 'UNSPECIFIED', 'UNSPECIFIED', 'UNSPECIFIED', ('UNSPECIFIED'), ('UNSPECIFIED'), ('UNSPECIFIED') ) ;
#49 = CARTESIAN_POINT ( 'NONE',  ( 0.0000000000000000000, 0.0000000000000000000, 0.0000000000000000000 ) ) ;
#50 = CARTESIAN_POINT ( 'NONE',  ( 0.0000000000000000000, 0.0000000000000000000, 0.0000000000000000000 ) ) ;
#51 = CC_DESIGN_PERSON_AND_ORGANIZATION_ASSIGNMENT ( #224, #67, ( #1 ) ) ;
#52 = EDGE_CURVE ( 'NONE', #277, #277, #42, .T. ) ;
#53 = AXIS2_PLACEMENT_3D ( 'NONE', #279, #206, #140 ) ;
#54 = CARTESIAN_POINT ( 'NONE',  ( 1.316288464743861212E-13, 1.499999999999998668, 37.69999999999999574 ) ) ;
#55 = CARTESIAN_POINT ( 'NONE',  ( 1.326762908760390423E-13, -4.653657836759941152E-15, 38.00000000000000000 ) ) ;
#56 = CARTESIAN_POINT ( 'NONE',  ( 1.326762908760390423E-13, 8.998558695971099120E-33, 38.00000000000000000 ) ) ;
#57 = LOCAL_TIME ( 15, 47, 31.00000000000000000, #240 ) ;
#58 = PLANE ( 'NONE',  #32 ) ;
#59 = EDGE_CURVE ( 'NONE', #253, #253, #127, .T. ) ;
#60 = AXIS2_PLACEMENT_3D ( 'NONE', #258, #282, #121 ) ;
#61 = FACE_OUTER_BOUND ( 'NONE', #204, .T. ) ;
#62 = CARTESIAN_POINT ( 'NONE',  ( 1.396592535537253342E-14, 0.3084999999999993858, 4.000000000000000000 ) ) ;
#63 = AXIS2_PLACEMENT_3D ( 'NONE', #50, #130, #28 ) ;
#64 = MECHANICAL_CONTEXT ( 'NONE', #216, 'mechanical' ) ;
#65 = PERSON_AND_ORGANIZATION ( #48, #81 ) ;
#66 = CC_DESIGN_APPROVAL ( #29, ( #260 ) ) ;
#67 = PERSON_AND_ORGANIZATION_ROLE ( 'design_owner' ) ;
#68 = FACE_OUTER_BOUND ( 'NONE', #244, .T. ) ;
#69 = EDGE_LOOP ( 'NONE', ( #181 ) ) ;
#70 = ADVANCED_FACE ( 'NONE', ( #254, #75 ), #38, .T. ) ;
#71 = APPROVAL_STATUS ( 'not_yet_approved' ) ;
#72 = EDGE_LOOP ( 'NONE', ( #151 ) ) ;
#73 = CIRCLE ( 'NONE', #53, 1.200000000000003286 ) ;
#74 = CARTESIAN_POINT ( 'NONE',  ( 1.396592535537253342E-14, 2.313379464755906383E-33, 4.000000000000000000 ) ) ;
#75 = FACE_BOUND ( 'NONE', #131, .T. ) ;
#76 = DIRECTION ( 'NONE',  ( 3.491481338843133355E-15, -1.224646799147352961E-16, 1.000000000000000000 ) ) ;
#77 = DIRECTION ( 'NONE',  ( -3.491481338843133355E-15, 1.224646799147352961E-16, -1.000000000000000000 ) ) ;
#78 = DIRECTION ( 'NONE',  ( -3.491481338843133355E-15, 1.224646799147352961E-16, -1.000000000000000000 ) ) ;
#79 = DIRECTION ( 'NONE',  ( -3.491481338843133355E-15, 1.224646799147352961E-16, -1.000000000000000000 ) ) ;
#80 =( NAMED_UNIT ( * ) PLANE_ANGLE_UNIT ( ) SI_UNIT ( $, .RADIAN. ) );
#81 = ORGANIZATION ( 'UNSPECIFIED', 'UNSPECIFIED', '' ) ;
#82 = CIRCLE ( 'NONE', #251, 0.3084999999999994413 ) ;
#83 = PRODUCT_DEFINITION ( 'UNKNOWN', '', #260, #118 ) ;
#84 = DATE_TIME_ROLE ( 'creation_date' ) ;
#85 = APPROVAL_DATE_TIME ( #264, #233 ) ;
#86 = EDGE_LOOP ( 'NONE', ( #272 ) ) ;
#87 = ADVANCED_FACE ( 'NONE', ( #229, #210 ), #202, .T. ) ;
#88 = LOCAL_TIME ( 15, 47, 31.00000000000000000, #266 ) ;
#89 = PERSON_AND_ORGANIZATION ( #48, #81 ) ;
#90 = EDGE_LOOP ( 'NONE', ( #157 ) ) ;
#91 = ORIENTED_EDGE ( 'NONE', *, *, #59, .T. ) ;
#92 = DIRECTION ( 'NONE',  ( 4.275831445896957731E-31, 1.000000000000000000, 1.224646799147352961E-16 ) ) ;
#93 = FACE_OUTER_BOUND ( 'NONE', #205, .T. ) ;
#94 = CARTESIAN_POINT ( 'NONE',  ( 4.864439902819927031E-14, -1.706215837489467627E-15, 13.93230961512659682 ) ) ;
#95 = DIRECTION ( 'NONE',  ( -4.682163560098636944E-31, -1.000000000000000000, -1.317911879034246018E-16 ) ) ;
#96 = EDGE_CURVE ( 'NONE', #31, #31, #82, .T. ) ;
#97 = FACE_OUTER_BOUND ( 'NONE', #106, .T. ) ;
#98 = CARTESIAN_POINT ( 'NONE',  ( 0.0000000000000000000, 0.0000000000000000000, 0.0000000000000000000 ) ) ;
#99 = VERTEX_POINT ( 'NONE', #261 ) ;
#100 = AXIS2_PLACEMENT_3D ( 'NONE', #215, #18, #117 ) ;
#101 = CC_DESIGN_SECURITY_CLASSIFICATION ( #164, ( #260 ) ) ;
#102 = VERTEX_POINT ( 'NONE', #40 ) ;
#103 = CC_DESIGN_DATE_AND_TIME_ASSIGNMENT ( #125, #84, ( #83 ) ) ;
#104 = CALENDAR_DATE ( 2021, 26, 11 ) ;
#105 = SECURITY_CLASSIFICATION_LEVEL ( 'unclassified' ) ;
#106 = EDGE_LOOP ( 'NONE', ( #273 ) ) ;
#107 = CALENDAR_DATE ( 2021, 26, 11 ) ;
#108 = CARTESIAN_POINT ( 'NONE',  ( -5.990448008336150001E-32, 2.101166315068511918E-33, -1.715732500612769482E-17 ) ) ;
#109 = EDGE_LOOP ( 'NONE', ( #23 ) ) ;
#110 = LOCAL_TIME ( 15, 47, 31.00000000000000000, #153 ) ;
#111 = CONICAL_SURFACE ( 'NONE', #276, 1.499999999999997113, 0.1745329251994261199 ) ;
#112 = CARTESIAN_POINT ( 'NONE',  ( 3.491481338843134834E-16, 0.3084999999999994413, 0.1000000000000000333 ) ) ;
#113 = CARTESIAN_POINT ( 'NONE',  ( 3.491481338843133355E-16, -1.224646799147352807E-17, 0.09999999999999999167 ) ) ;
#114 = PLANE ( 'NONE',  #144 ) ;
#115 = ADVANCED_FACE ( 'NONE', ( #185 ), #58, .F. ) ;
#116 = DIRECTION ( 'NONE',  ( -3.491481338843133355E-15, 1.224646799147352961E-16, -1.000000000000000000 ) ) ;
#117 = DIRECTION ( 'NONE',  ( 0.0000000000000000000, 1.000000000000000000, 0.0000000000000000000 ) ) ;
#118 = DESIGN_CONTEXT ( 'detailed design', #166, 'design' ) ;
#119 = CIRCLE ( 'NONE', #45, 0.3388844939755814578 ) ;
#120 = LOCAL_TIME ( 15, 47, 31.00000000000000000, #148 ) ;
#121 = DIRECTION ( 'NONE',  ( -4.275831445896957731E-31, -1.000000000000000000, -1.224646799147352961E-16 ) ) ;
#122 = VERTEX_POINT ( 'NONE', #62 ) ;
#123 = CLOSED_SHELL ( 'NONE', ( #203, #87, #170, #268 ) ) ;
#124 = DATE_AND_TIME ( #104, #110 ) ;
#125 = DATE_AND_TIME ( #44, #88 ) ;
#126 = ORIENTED_EDGE ( 'NONE', *, *, #217, .F. ) ;
#127 = CIRCLE ( 'NONE', #152, 1.500000000000003331 ) ;
#128 = CALENDAR_DATE ( 2021, 26, 11 ) ;
#129 = APPROVAL_ROLE ( '' ) ;
#130 = DIRECTION ( 'NONE',  ( -3.491481338843133355E-15, 1.224646799147352961E-16, -1.000000000000000000 ) ) ;
#131 = EDGE_LOOP ( 'NONE', ( #197 ) ) ;
#132 = EDGE_LOOP ( 'NONE', ( #252 ) ) ;
#133 = AXIS2_PLACEMENT_3D ( 'NONE', #235, #79, #237 ) ;
#134 = CC_DESIGN_PERSON_AND_ORGANIZATION_ASSIGNMENT ( #8, #179, ( #164 ) ) ;
#135 = CARTESIAN_POINT ( 'NONE',  ( 4.864439902819927031E-14, -1.706215837489467627E-15, 13.93230961512659682 ) ) ;
#136 = CARTESIAN_POINT ( 'NONE',  ( 1.396592535537253342E-14, 2.313379464755906383E-33, 4.000000000000000000 ) ) ;
#137 = AXIS2_PLACEMENT_3D ( 'NONE', #49, #21, #199 ) ;
#138 = EDGE_CURVE ( 'NONE', #99, #99, #119, .T. ) ;
#139 = APPROVAL_PERSON_ORGANIZATION ( #155, #29, #220 ) ;
#140 = DIRECTION ( 'NONE',  ( 0.0000000000000000000, 1.000000000000000000, 0.0000000000000000000 ) ) ;
#141 = CARTESIAN_POINT ( 'NONE',  ( 2.565294811559829736E-14, -8.997842963946609330E-16, 7.347296355333847728 ) ) ;
#142 = FACE_OUTER_BOUND ( 'NONE', #221, .T. ) ;
#143 = UNCERTAINTY_MEASURE_WITH_UNIT (LENGTH_MEASURE( 1.000000000000000082E-05 ), #20, 'distance_accuracy_value', 'NONE');
#144 = AXIS2_PLACEMENT_3D ( 'NONE', #74, #211, #228 ) ;
#145 = DIRECTION ( 'NONE',  ( -3.491481338843133355E-15, 1.224646799147352961E-16, -1.000000000000000000 ) ) ;
#146 = CARTESIAN_POINT ( 'NONE',  ( 1.326762908760390423E-13, 1.199999999999998845, 38.00000000000000000 ) ) ;
#147 = PRODUCT_RELATED_PRODUCT_CATEGORY ( 'detail', '', ( #1 ) ) ;
#148 = COORDINATED_UNIVERSAL_TIME_OFFSET ( 1, 0, .AHEAD. ) ;
#149 = EDGE_LOOP ( 'NONE', ( #274 ) ) ;
#150 = APPROVAL_DATE_TIME ( #43, #156 ) ;
#151 = ORIENTED_EDGE ( 'NONE', *, *, #59, .F. ) ;
#152 = AXIS2_PLACEMENT_3D ( 'NONE', #223, #256, #183 ) ;
#153 = COORDINATED_UNIVERSAL_TIME_OFFSET ( 1, 0, .AHEAD. ) ;
#154 = CYLINDRICAL_SURFACE ( 'NONE', #63, 1.500000000000000222 ) ;
#155 = PERSON_AND_ORGANIZATION ( #48, #81 ) ;
#156 = APPROVAL ( #7, 'UNSPECIFIED' ) ;
#157 = ORIENTED_EDGE ( 'NONE', *, *, #37, .T. ) ;
#158 = AXIS2_PLACEMENT_3D ( 'NONE', #247, #176, #225 ) ;
#159 = CARTESIAN_POINT ( 'NONE',  ( 4.731839565957902296E-32, 0.2507649730810377342, 1.355252715606880543E-17 ) ) ;
#160 = DIRECTION ( 'NONE',  ( 3.491481338843133355E-15, -1.224646799147352961E-16, 1.000000000000000000 ) ) ;
#161 = EDGE_CURVE ( 'NONE', #122, #122, #191, .T. ) ;
#162 = FACE_BOUND ( 'NONE', #30, .T. ) ;
#163 = DIRECTION ( 'NONE',  ( 0.0000000000000000000, 1.000000000000000000, 0.0000000000000000000 ) ) ;
#164 = SECURITY_CLASSIFICATION ( '', '', #105 ) ;
#165 = FACE_OUTER_BOUND ( 'NONE', #109, .T. ) ;
#166 = APPLICATION_CONTEXT ( 'configuration controlled 3d designs of mechanical parts and assemblies' ) ;
#167 = FACE_OUTER_BOUND ( 'NONE', #177, .T. ) ;
#168 = AXIS2_PLACEMENT_3D ( 'NONE', #113, #160, #95 ) ;
#169 = VERTEX_POINT ( 'NONE', #146 ) ;
#170 = ADVANCED_FACE ( 'NONE', ( #93, #165 ), #189, .T. ) ;
#171 = AXIS2_PLACEMENT_3D ( 'NONE', #56, #184, #92 ) ;
#172 = CC_DESIGN_APPROVAL ( #233, ( #164 ) ) ;
#173 = PERSON_AND_ORGANIZATION_ROLE ( 'creator' ) ;
#174 = EDGE_LOOP ( 'NONE', ( #198 ) ) ;
#175 = DATE_AND_TIME ( #241, #120 ) ;
#176 = DIRECTION ( 'NONE',  ( -3.491481338843133355E-15, 1.224646799147352961E-16, -1.000000000000000000 ) ) ;
#177 = EDGE_LOOP ( 'NONE', ( #126 ) ) ;
#178 = APPROVAL_PERSON_ORGANIZATION ( #3, #156, #129 ) ;
#179 = PERSON_AND_ORGANIZATION_ROLE ( 'classification_officer' ) ;
#180 = ORIENTED_EDGE ( 'NONE', *, *, #37, .F. ) ;
#181 = ORIENTED_EDGE ( 'NONE', *, *, #161, .F. ) ;
#182 = CARTESIAN_POINT ( 'NONE',  ( 2.444036937190193349E-14, 0.3084999999999993303, 7.000000000000000000 ) ) ;
#183 = DIRECTION ( 'NONE',  ( 0.0000000000000000000, 1.000000000000000000, 0.0000000000000000000 ) ) ;
#184 = DIRECTION ( 'NONE',  ( -3.491481338843133355E-15, 1.224646799147352961E-16, -1.000000000000000000 ) ) ;
#185 = FACE_OUTER_BOUND ( 'NONE', #132, .T. ) ;
#186 = CIRCLE ( 'NONE', #158, 0.3085000000000001630 ) ;
#187 = PLANE ( 'NONE',  #171 ) ;
#188 = CC_DESIGN_PERSON_AND_ORGANIZATION_ASSIGNMENT ( #24, #173, ( #83 ) ) ;
#189 = CYLINDRICAL_SURFACE ( 'NONE', #201, 0.3084999999999996634 ) ;
#190 = MANIFOLD_SOLID_BREP ( 'Corps-Déplacer/Copier1[1]', #243 ) ;
#191 = CIRCLE ( 'NONE', #263, 0.3084999999999998299 ) ;
#192 = ADVANCED_FACE ( 'NONE', ( #167, #39 ), #214, .T. ) ;
#193 = CARTESIAN_POINT ( 'NONE',  ( 1.396592535537253342E-14, 0.3084999999999993858, 4.000000000000000000 ) ) ;
#194 = APPLICATION_PROTOCOL_DEFINITION ( 'international standard', 'config_control_design', 1994, #166 ) ;
#195 = AXIS2_PLACEMENT_3D ( 'NONE', #108, #248, #245 ) ;
#196 = DATE_TIME_ROLE ( 'classification_date' ) ;
#197 = ORIENTED_EDGE ( 'NONE', *, *, #246, .T. ) ;
#198 = ORIENTED_EDGE ( 'NONE', *, *, #52, .F. ) ;
#199 = DIRECTION ( 'NONE',  ( 1.000000000000000000, 0.0000000000000000000, 0.0000000000000000000 ) ) ;
#200 = CC_DESIGN_PERSON_AND_ORGANIZATION_ASSIGNMENT ( #65, #27, ( #260 ) ) ;
#201 = AXIS2_PLACEMENT_3D ( 'NONE', #283, #145, #259 ) ;
#202 = CONICAL_SURFACE ( 'NONE', #168, 0.3084999999999994413, 0.5235987755982921543 ) ;
#203 = ADVANCED_FACE ( 'NONE', ( #234 ), #36, .F. ) ;
#204 = EDGE_LOOP ( 'NONE', ( #10 ) ) ;
#205 = EDGE_LOOP ( 'NONE', ( #5 ) ) ;
#206 = DIRECTION ( 'NONE',  ( -3.491481338843133355E-15, 1.224646799147352961E-16, -1.000000000000000000 ) ) ;
#207 = DIRECTION ( 'NONE',  ( 0.0000000000000000000, 1.000000000000000000, 0.0000000000000000000 ) ) ;
#208 =( GEOMETRIC_REPRESENTATION_CONTEXT ( 3 ) GLOBAL_UNCERTAINTY_ASSIGNED_CONTEXT ( ( #143 ) ) GLOBAL_UNIT_ASSIGNED_CONTEXT ( ( #20, #80, #19 ) ) REPRESENTATION_CONTEXT ( 'NONE', 'WORKASPACE' ) );
#209 = FACE_OUTER_BOUND ( 'NONE', #86, .T. ) ;
#210 = FACE_OUTER_BOUND ( 'NONE', #226, .T. ) ;
#211 = DIRECTION ( 'NONE',  ( 3.491481338843133355E-15, -1.224646799147352961E-16, 1.000000000000000000 ) ) ;
#212 = DIRECTION ( 'NONE',  ( 0.0000000000000000000, 1.000000000000000000, 0.0000000000000000000 ) ) ;
#213 = ADVANCED_FACE ( 'NONE', ( #142, #61 ), #238, .F. ) ;
#214 = CYLINDRICAL_SURFACE ( 'NONE', #236, 0.3084999999999999964 ) ;
#215 = CARTESIAN_POINT ( 'NONE',  ( 1.396592535537253342E-14, -4.898587196589411843E-16, 4.000000000000000000 ) ) ;
#216 = APPLICATION_CONTEXT ( 'configuration controlled 3d designs of mechanical parts and assemblies' ) ;
#217 = EDGE_CURVE ( 'NONE', #219, #219, #230, .T. ) ;
#218 = CC_DESIGN_APPROVAL ( #156, ( #83 ) ) ;
#219 = VERTEX_POINT ( 'NONE', #193 ) ;
#220 = APPROVAL_ROLE ( '' ) ;
#221 = EDGE_LOOP ( 'NONE', ( #180 ) ) ;
#222 = SHAPE_DEFINITION_REPRESENTATION ( #26, #227 ) ;
#223 = CARTESIAN_POINT ( 'NONE',  ( 1.316288464743861212E-13, -4.616918432785520292E-15, 37.69999999999999574 ) ) ;
#224 = PERSON_AND_ORGANIZATION ( #48, #81 ) ;
#225 = DIRECTION ( 'NONE',  ( 0.0000000000000000000, 1.000000000000000000, 0.0000000000000000000 ) ) ;
#226 = EDGE_LOOP ( 'NONE', ( #250 ) ) ;
#227 = ADVANCED_BREP_SHAPE_REPRESENTATION ( '964889', ( #190, #6, #137 ), #208 ) ;
#228 = DIRECTION ( 'NONE',  ( -4.275831445896957731E-31, -1.000000000000000000, -1.224646799147352961E-16 ) ) ;
#229 = FACE_BOUND ( 'NONE', #174, .T. ) ;
#230 = CIRCLE ( 'NONE', #100, 0.3084999999999998299 ) ;
#231 = DIRECTION ( 'NONE',  ( 0.0000000000000000000, -1.000000000000000000, 0.0000000000000000000 ) ) ;
#232 = CARTESIAN_POINT ( 'NONE',  ( 1.396592535537253342E-14, -4.898587196589411843E-16, 4.000000000000000000 ) ) ;
#233 = APPROVAL ( #71, 'UNSPECIFIED' ) ;
#234 = FACE_OUTER_BOUND ( 'NONE', #149, .T. ) ;
#235 = CARTESIAN_POINT ( 'NONE',  ( 2.444036937190193349E-14, -8.673617379884035472E-16, 7.000000000000000000 ) ) ;
#236 = AXIS2_PLACEMENT_3D ( 'NONE', #98, #78, #16 ) ;
#237 = DIRECTION ( 'NONE',  ( 4.399100771199311628E-31, 1.000000000000000000, 1.224646799147352961E-16 ) ) ;
#238 = TOROIDAL_SURFACE ( 'NONE', #133, 2.308500000000000441, 2.000000000000000000 ) ;
#239 = ADVANCED_FACE ( 'NONE', ( #97 ), #187, .F. ) ;
#240 = COORDINATED_UNIVERSAL_TIME_OFFSET ( 1, 0, .AHEAD. ) ;
#241 = CALENDAR_DATE ( 2021, 26, 11 ) ;
#242 = PERSON_AND_ORGANIZATION ( #48, #81 ) ;
#243 = CLOSED_SHELL ( 'NONE', ( #115, #192, #213, #262, #41, #70, #239 ) ) ;
#244 = EDGE_LOOP ( 'NONE', ( #91 ) ) ;
#245 = DIRECTION ( 'NONE',  ( 4.275831445896957731E-31, 1.000000000000000000, 1.224646799147353207E-16 ) ) ;
#246 = EDGE_CURVE ( 'NONE', #169, #169, #73, .T. ) ;
#247 = CARTESIAN_POINT ( 'NONE',  ( 2.444036937190193349E-14, -8.572527594031471218E-16, 7.000000000000000000 ) ) ;
#248 = DIRECTION ( 'NONE',  ( -3.491481338843133355E-15, 1.224646799147352961E-16, -1.000000000000000000 ) ) ;
#249 = COORDINATED_UNIVERSAL_TIME_OFFSET ( 1, 0, .AHEAD. ) ;
#250 = ORIENTED_EDGE ( 'NONE', *, *, #96, .T. ) ;
#251 = AXIS2_PLACEMENT_3D ( 'NONE', #13, #278, #35 ) ;
#252 = ORIENTED_EDGE ( 'NONE', *, *, #217, .T. ) ;
#253 = VERTEX_POINT ( 'NONE', #54 ) ;
#254 = FACE_OUTER_BOUND ( 'NONE', #72, .T. ) ;
#255 = DIRECTION ( 'NONE',  ( 0.0000000000000000000, 1.000000000000000000, 0.0000000000000000000 ) ) ;
#256 = DIRECTION ( 'NONE',  ( -3.491481338843133355E-15, 1.224646799147352961E-16, -1.000000000000000000 ) ) ;
#257 = EDGE_CURVE ( 'NONE', #102, #102, #2, .T. ) ;
#258 = CARTESIAN_POINT ( 'NONE',  ( -2.995224004168075000E-32, 1.050583157534255959E-33, -8.578662503063847409E-18 ) ) ;
#259 = DIRECTION ( 'NONE',  ( 4.275831445896957731E-31, 1.000000000000000000, 1.224646799147352714E-16 ) ) ;
#260 = PRODUCT_DEFINITION_FORMATION_WITH_SPECIFIED_SOURCE ( 'ANY', '', #1, .NOT_KNOWN. ) ;
#261 = CARTESIAN_POINT ( 'NONE',  ( 2.565294811559829736E-14, 0.3388844939755805141, 7.347296355333847728 ) ) ;
#262 = ADVANCED_FACE ( 'NONE', ( #162, #209 ), #111, .T. ) ;
#263 = AXIS2_PLACEMENT_3D ( 'NONE', #232, #116, #207 ) ;
#264 = DATE_AND_TIME ( #128, #281 ) ;
#265 = PERSON_AND_ORGANIZATION_ROLE ( 'creator' ) ;
#266 = COORDINATED_UNIVERSAL_TIME_OFFSET ( 1, 0, .AHEAD. ) ;
#267 = ORIENTED_EDGE ( 'NONE', *, *, #257, .F. ) ;
#268 = ADVANCED_FACE ( 'NONE', ( #34 ), #114, .T. ) ;
#269 = APPLICATION_PROTOCOL_DEFINITION ( 'international standard', 'config_control_design', 1994, #216 ) ;
#270 = AXIS2_PLACEMENT_3D ( 'NONE', #135, #14, #255 ) ;
#271 = FACE_OUTER_BOUND ( 'NONE', #47, .T. ) ;
#272 = ORIENTED_EDGE ( 'NONE', *, *, #257, .T. ) ;
#273 = ORIENTED_EDGE ( 'NONE', *, *, #246, .F. ) ;
#274 = ORIENTED_EDGE ( 'NONE', *, *, #52, .T. ) ;
#275 = CC_DESIGN_PERSON_AND_ORGANIZATION_ASSIGNMENT ( #89, #265, ( #260 ) ) ;
#276 = AXIS2_PLACEMENT_3D ( 'NONE', #94, #76, #231 ) ;
#277 = VERTEX_POINT ( 'NONE', #159 ) ;
#278 = DIRECTION ( 'NONE',  ( -3.491481338843133355E-15, 1.224646799147352961E-16, -1.000000000000000000 ) ) ;
#279 = CARTESIAN_POINT ( 'NONE',  ( 1.326762908760390423E-13, -4.653657836759941152E-15, 38.00000000000000000 ) ) ;
#280 = DIRECTION ( 'NONE',  ( -4.275831445896957731E-31, -1.000000000000000000, -1.224646799147352961E-16 ) ) ;
#281 = LOCAL_TIME ( 15, 47, 31.00000000000000000, #249 ) ;
#282 = DIRECTION ( 'NONE',  ( 3.491481338843133355E-15, -1.224646799147352961E-16, 1.000000000000000000 ) ) ;
#283 = CARTESIAN_POINT ( 'NONE',  ( 0.0000000000000000000, 0.0000000000000000000, 0.0000000000000000000 ) ) ;
ENDSEC;
END-ISO-10303-21;
