ISO-10303-21;
HEADER;
FILE_DESCRIPTION (( 'STEP AP203' ),
    '1' );
FILE_NAME ('964655.step',
    '2021-12-01T14:04:22',
    ( '' ),
    ( '' ),
    'SwSTEP 2.0',
    'SolidWorks 2019',
    '' );
FILE_SCHEMA (( 'CONFIG_CONTROL_DESIGN' ));
ENDSEC;

DATA;
#1 = EDGE_LOOP ( 'NONE', ( #150 ) ) ;
#2 = ORIENTED_EDGE ( 'NONE', *, *, #20, .F. ) ;
#3 = ORIENTED_EDGE ( 'NONE', *, *, #181, .T. ) ;
#4 = APPROVAL_PERSON_ORGANIZATION ( #137, #273, #114 ) ;
#5 = CARTESIAN_POINT ( 'NONE',  ( 2.444036937190193349E-14, -8.572527594031473190E-16, 7.000000000000000000 ) ) ;
#6 = FACE_OUTER_BOUND ( 'NONE', #280, .T. ) ;
#7 = ORIENTED_EDGE ( 'NONE', *, *, #120, .F. ) ;
#8 = DATE_AND_TIME ( #75, #100 ) ;
#9 = EDGE_LOOP ( 'NONE', ( #33 ) ) ;
#10 = EDGE_CURVE ( 'NONE', #204, #204, #68, .T. ) ;
#11 = CC_DESIGN_APPROVAL ( #64, ( #217 ) ) ;
#12 = DIRECTION ( 'NONE',  ( 0.0000000000000000000, 1.000000000000000000, 0.0000000000000000000 ) ) ;
#13 = DIRECTION ( 'NONE',  ( -4.906827883789142341E-31, -1.000000000000000000, -1.381149264312746306E-16 ) ) ;
#14 = CARTESIAN_POINT ( 'NONE',  ( 2.504511167915743435E-14, -8.784642641776457383E-16, 7.173205080756891228 ) ) ;
#15 = AXIS2_PLACEMENT_3D ( 'NONE', #193, #287, #221 ) ;
#16 = EDGE_CURVE ( 'NONE', #274, #274, #79, .T. ) ;
#17 = DIRECTION ( 'NONE',  ( 0.0000000000000000000, 1.000000000000000000, 0.0000000000000000000 ) ) ;
#18 = CARTESIAN_POINT ( 'NONE',  ( 5.358479882634335789E-14, -1.879501735712543302E-15, 15.34729635533384595 ) ) ;
#19 = CARTESIAN_POINT ( 'NONE',  ( 0.0000000000000000000, 0.0000000000000000000, 0.0000000000000000000 ) ) ;
#20 = EDGE_CURVE ( 'NONE', #155, #155, #238, .T. ) ;
#21 = CIRCLE ( 'NONE', #242, 0.7849999999999999201 ) ;
#22 = PERSON_AND_ORGANIZATION ( #229, #142 ) ;
#23 = APPROVAL_STATUS ( 'not_yet_approved' ) ;
#24 = ADVANCED_FACE ( 'NONE', ( #247, #95 ), #218, .T. ) ;
#25 =( GEOMETRIC_REPRESENTATION_CONTEXT ( 3 ) GLOBAL_UNCERTAINTY_ASSIGNED_CONTEXT ( ( #175 ) ) GLOBAL_UNIT_ASSIGNED_CONTEXT ( ( #67, #42, #162 ) ) REPRESENTATION_CONTEXT ( 'NONE', 'WORKASPACE' ) );
#26 = CALENDAR_DATE ( 2021, 1, 12 ) ;
#27 = ORIENTED_EDGE ( 'NONE', *, *, #268, .T. ) ;
#28 = CARTESIAN_POINT ( 'NONE',  ( -1.369682287977299593E-31, 4.804198754148303162E-33, -3.922925987715946960E-17 ) ) ;
#29 = AXIS2_PLACEMENT_3D ( 'NONE', #97, #283, #194 ) ;
#30 = FACE_BOUND ( 'NONE', #220, .T. ) ;
#31 = CARTESIAN_POINT ( 'NONE',  ( 1.735266225405037467E-13, -6.086494591762345225E-15, 49.70000000000000284 ) ) ;
#32 = CC_DESIGN_DATE_AND_TIME_ASSIGNMENT ( #170, #167, ( #217 ) ) ;
#33 = ORIENTED_EDGE ( 'NONE', *, *, #230, .T. ) ;
#34 = MANIFOLD_SOLID_BREP ( 'Corps-Déplacer/Copier1[1]', #146 ) ;
#35 = EDGE_LOOP ( 'NONE', ( #96 ) ) ;
#36 = FACE_OUTER_BOUND ( 'NONE', #9, .T. ) ;
#37 = DIRECTION ( 'NONE',  ( 3.491481338843133355E-15, -1.224646799147353207E-16, 1.000000000000000000 ) ) ;
#38 = DIRECTION ( 'NONE',  ( 4.275831445896958607E-31, 1.000000000000000000, 1.224646799147353207E-16 ) ) ;
#39 = AXIS2_PLACEMENT_3D ( 'NONE', #108, #40, #293 ) ;
#40 = DIRECTION ( 'NONE',  ( -3.491481338843133355E-15, 1.224646799147353207E-16, -1.000000000000000000 ) ) ;
#41 = ADVANCED_FACE ( 'NONE', ( #241 ), #58, .F. ) ;
#42 =( NAMED_UNIT ( * ) PLANE_ANGLE_UNIT ( ) SI_UNIT ( $, .RADIAN. ) );
#43 = CC_DESIGN_APPROVAL ( #273, ( #136 ) ) ;
#44 = DATE_TIME_ROLE ( 'creation_date' ) ;
#45 = ADVANCED_FACE ( 'NONE', ( #144, #6 ), #189, .T. ) ;
#46 = VERTEX_POINT ( 'NONE', #297 ) ;
#47 = ADVANCED_BREP_SHAPE_REPRESENTATION ( '964655', ( #34, #128, #197 ), #25 ) ;
#48 = PERSON_AND_ORGANIZATION ( #229, #142 ) ;
#49 = ORIENTED_EDGE ( 'NONE', *, *, #10, .T. ) ;
#50 = AXIS2_PLACEMENT_3D ( 'NONE', #14, #125, #276 ) ;
#51 = CALENDAR_DATE ( 2021, 1, 12 ) ;
#52 = PERSON_AND_ORGANIZATION ( #229, #142 ) ;
#53 = DIRECTION ( 'NONE',  ( -3.491481338843133355E-15, 1.224646799147353207E-16, -1.000000000000000000 ) ) ;
#54 = EDGE_LOOP ( 'NONE', ( #92 ) ) ;
#55 = CLOSED_SHELL ( 'NONE', ( #41, #298, #24, #202 ) ) ;
#56 = ORIENTED_EDGE ( 'NONE', *, *, #181, .F. ) ;
#57 = DIRECTION ( 'NONE',  ( 0.0000000000000000000, 1.000000000000000000, 0.0000000000000000000 ) ) ;
#58 = PLANE ( 'NONE',  #185 ) ;
#59 = DIRECTION ( 'NONE',  ( 4.275831445896957731E-31, 1.000000000000000000, 1.224646799147353207E-16 ) ) ;
#60 = AXIS2_PLACEMENT_3D ( 'NONE', #266, #195, #57 ) ;
#61 = DIRECTION ( 'NONE',  ( 3.491481338843133355E-15, -1.224646799147353207E-16, 1.000000000000000000 ) ) ;
#62 = PLANE ( 'NONE',  #233 ) ;
#63 = CARTESIAN_POINT ( 'NONE',  ( 5.237222008264700033E-14, 0.6849999999999980549, 15.00000000000000000 ) ) ;
#64 = APPROVAL ( #148, 'UNSPECIFIED' ) ;
#65 = FACE_OUTER_BOUND ( 'NONE', #101, .T. ) ;
#66 = PERSON_AND_ORGANIZATION_ROLE ( 'design_owner' ) ;
#67 =( LENGTH_UNIT ( ) NAMED_UNIT ( * ) SI_UNIT ( .MILLI., .METRE. ) );
#68 = CIRCLE ( 'NONE', #302, 1.499999999999996447 ) ;
#69 = VERTEX_POINT ( 'NONE', #134 ) ;
#70 = EDGE_CURVE ( 'NONE', #291, #291, #275, .T. ) ;
#71 = PERSON_AND_ORGANIZATION ( #229, #142 ) ;
#72 = EDGE_LOOP ( 'NONE', ( #56 ) ) ;
#73 = CONICAL_SURFACE ( 'NONE', #169, 0.6849999999999988320, 0.5235987755982955960 ) ;
#74 = DIRECTION ( 'NONE',  ( -3.491481338843133355E-15, 1.224646799147353207E-16, -1.000000000000000000 ) ) ;
#75 = CALENDAR_DATE ( 2021, 1, 12 ) ;
#76 = DIRECTION ( 'NONE',  ( 3.491481338843133355E-15, -1.224646799147353207E-16, 1.000000000000000000 ) ) ;
#77 = CARTESIAN_POINT ( 'NONE',  ( 1.745740669421566678E-13, -6.123233995736766085E-15, 50.00000000000000000 ) ) ;
#78 = APPROVAL_ROLE ( '' ) ;
#79 = CIRCLE ( 'NONE', #60, 0.6849999999999999423 ) ;
#80 = FACE_OUTER_BOUND ( 'NONE', #300, .T. ) ;
#81 = DIRECTION ( 'NONE',  ( 0.0000000000000000000, 1.000000000000000000, 0.0000000000000000000 ) ) ;
#82 = DIRECTION ( 'NONE',  ( 0.0000000000000000000, 1.000000000000000000, 0.0000000000000000000 ) ) ;
#83 = DIRECTION ( 'NONE',  ( -3.491481338843133355E-15, 1.224646799147353207E-16, -1.000000000000000000 ) ) ;
#84 = LOCAL_TIME ( 15, 4, 22.00000000000000000, #119 ) ;
#85 = DIRECTION ( 'NONE',  ( -4.275831445896958607E-31, -1.000000000000000000, -1.224646799147353207E-16 ) ) ;
#86 = FACE_BOUND ( 'NONE', #277, .T. ) ;
#87 = FACE_OUTER_BOUND ( 'NONE', #171, .T. ) ;
#88 = AXIS2_PLACEMENT_3D ( 'NONE', #262, #53, #121 ) ;
#89 = COORDINATED_UNIVERSAL_TIME_OFFSET ( 1, 0, .AHEAD. ) ;
#90 = CALENDAR_DATE ( 2021, 1, 12 ) ;
#91 = PERSON_AND_ORGANIZATION_ROLE ( 'creator' ) ;
#92 = ORIENTED_EDGE ( 'NONE', *, *, #268, .F. ) ;
#93 = SECURITY_CLASSIFICATION_LEVEL ( 'unclassified' ) ;
#94 = ORIENTED_EDGE ( 'NONE', *, *, #16, .T. ) ;
#95 = FACE_OUTER_BOUND ( 'NONE', #289, .T. ) ;
#96 = ORIENTED_EDGE ( 'NONE', *, *, #130, .F. ) ;
#97 = CARTESIAN_POINT ( 'NONE',  ( 0.0000000000000000000, 0.0000000000000000000, 0.0000000000000000000 ) ) ;
#98 = CARTESIAN_POINT ( 'NONE',  ( 6.912110748678991751E-14, -2.424442086958568499E-15, 19.79707201004043782 ) ) ;
#99 = AXIS2_PLACEMENT_3D ( 'NONE', #216, #264, #267 ) ;
#100 = LOCAL_TIME ( 15, 4, 22.00000000000000000, #192 ) ;
#101 = EDGE_LOOP ( 'NONE', ( #49 ) ) ;
#102 = DIRECTION ( 'NONE',  ( -4.275831445896958607E-31, -1.000000000000000000, -1.224646799147353207E-16 ) ) ;
#103 = ADVANCED_FACE ( 'NONE', ( #80 ), #263, .F. ) ;
#104 = DIRECTION ( 'NONE',  ( -3.491481338843133355E-15, 1.224646799147353207E-16, -1.000000000000000000 ) ) ;
#105 = FACE_OUTER_BOUND ( 'NONE', #1, .T. ) ;
#106 = CONICAL_SURFACE ( 'NONE', #118, 1.499999999999996447, 0.1745329251994258979 ) ;
#107 = PRODUCT_DEFINITION ( 'UNKNOWN', '', #136, #224 ) ;
#108 = CARTESIAN_POINT ( 'NONE',  ( 0.0000000000000000000, 0.0000000000000000000, 0.0000000000000000000 ) ) ;
#109 = DIRECTION ( 'NONE',  ( 3.491481338843133355E-15, -1.224646799147353207E-16, 1.000000000000000000 ) ) ;
#110 = DIRECTION ( 'NONE',  ( 1.000000000000000000, 0.0000000000000000000, 0.0000000000000000000 ) ) ;
#111 = CONICAL_SURFACE ( 'NONE', #122, 0.7849999999999990319, 0.5235987755982921543 ) ;
#112 = VERTEX_POINT ( 'NONE', #232 ) ;
#113 = CC_DESIGN_PERSON_AND_ORGANIZATION_ASSIGNMENT ( #71, #258, ( #136 ) ) ;
#114 = APPROVAL_ROLE ( '' ) ;
#115 = APPROVAL_DATE_TIME ( #159, #235 ) ;
#116 = PRODUCT ( '964655', '964655', '', ( #236 ) ) ;
#117 = ORIENTED_EDGE ( 'NONE', *, *, #243, .F. ) ;
#118 = AXIS2_PLACEMENT_3D ( 'NONE', #252, #61, #249 ) ;
#119 = COORDINATED_UNIVERSAL_TIME_OFFSET ( 1, 0, .AHEAD. ) ;
#120 = EDGE_CURVE ( 'NONE', #203, #203, #21, .T. ) ;
#121 = DIRECTION ( 'NONE',  ( 4.275831445896958607E-31, 1.000000000000000000, 1.224646799147353207E-16 ) ) ;
#122 = AXIS2_PLACEMENT_3D ( 'NONE', #225, #109, #13 ) ;
#123 = EDGE_LOOP ( 'NONE', ( #173 ) ) ;
#124 = ORIENTED_EDGE ( 'NONE', *, *, #70, .F. ) ;
#125 = DIRECTION ( 'NONE',  ( -3.491481338843133355E-15, 1.224646799147353207E-16, -1.000000000000000000 ) ) ;
#126 = ADVANCED_FACE ( 'NONE', ( #286, #30 ), #158, .T. ) ;
#127 = DIRECTION ( 'NONE',  ( -3.491481338843133355E-15, 1.224646799147353207E-16, -1.000000000000000000 ) ) ;
#128 = MANIFOLD_SOLID_BREP ( 'Corps-Déplacer/Copier1[2]', #55 ) ;
#129 = FACE_OUTER_BOUND ( 'NONE', #147, .T. ) ;
#130 = EDGE_CURVE ( 'NONE', #180, #180, #292, .T. ) ;
#131 = AXIS2_PLACEMENT_3D ( 'NONE', #269, #104, #38 ) ;
#132 = DIRECTION ( 'NONE',  ( 0.0000000000000000000, 1.000000000000000000, 0.0000000000000000000 ) ) ;
#133 = FACE_OUTER_BOUND ( 'NONE', #199, .T. ) ;
#134 = CARTESIAN_POINT ( 'NONE',  ( 2.444036937190193349E-14, 0.7849999999999990319, 7.000000000000000000 ) ) ;
#135 = EDGE_LOOP ( 'NONE', ( #94 ) ) ;
#136 = PRODUCT_DEFINITION_FORMATION_WITH_SPECIFIED_SOURCE ( 'ANY', '', #116, .NOT_KNOWN. ) ;
#137 = PERSON_AND_ORGANIZATION ( #229, #142 ) ;
#138 = ORIENTED_EDGE ( 'NONE', *, *, #70, .T. ) ;
#139 = CC_DESIGN_PERSON_AND_ORGANIZATION_ASSIGNMENT ( #48, #237, ( #217 ) ) ;
#140 = PERSON_AND_ORGANIZATION ( #229, #142 ) ;
#141 = EDGE_LOOP ( 'NONE', ( #124 ) ) ;
#142 = ORGANIZATION ( 'UNSPECIFIED', 'UNSPECIFIED', '' ) ;
#143 = SHAPE_DEFINITION_REPRESENTATION ( #188, #47 ) ;
#144 = FACE_OUTER_BOUND ( 'NONE', #123, .T. ) ;
#145 = EDGE_LOOP ( 'NONE', ( #257 ) ) ;
#146 = CLOSED_SHELL ( 'NONE', ( #206, #285, #191, #255, #172, #45, #126, #103 ) ) ;
#147 = EDGE_LOOP ( 'NONE', ( #215 ) ) ;
#148 = APPROVAL_STATUS ( 'not_yet_approved' ) ;
#149 = EDGE_LOOP ( 'NONE', ( #27 ) ) ;
#150 = ORIENTED_EDGE ( 'NONE', *, *, #20, .T. ) ;
#151 = LOCAL_TIME ( 15, 4, 22.00000000000000000, #254 ) ;
#152 = CARTESIAN_POINT ( 'NONE',  ( 2.504511167915743435E-14, -8.784642641776457383E-16, 7.173205080756891228 ) ) ;
#153 = FACE_OUTER_BOUND ( 'NONE', #35, .T. ) ;
#154 = CARTESIAN_POINT ( 'NONE',  ( 2.444036937190193349E-14, 5.886557146947777289E-33, 7.000000000000000000 ) ) ;
#155 = VERTEX_POINT ( 'NONE', #295 ) ;
#156 = CC_DESIGN_PERSON_AND_ORGANIZATION_ASSIGNMENT ( #303, #91, ( #136 ) ) ;
#157 = VERTEX_POINT ( 'NONE', #160 ) ;
#158 = CONICAL_SURFACE ( 'NONE', #251, 1.200000000000001732, 0.7853981633974453924 ) ;
#159 = DATE_AND_TIME ( #182, #163 ) ;
#160 = CARTESIAN_POINT ( 'NONE',  ( 5.358479882634335789E-14, 0.7153844939755801269, 15.34729635533384595 ) ) ;
#161 = EDGE_LOOP ( 'NONE', ( #2 ) ) ;
#162 =( NAMED_UNIT ( * ) SI_UNIT ( $, .STERADIAN. ) SOLID_ANGLE_UNIT ( ) );
#163 = LOCAL_TIME ( 15, 4, 22.00000000000000000, #89 ) ;
#164 = DIRECTION ( 'NONE',  ( 0.0000000000000000000, 1.000000000000000000, 0.0000000000000000000 ) ) ;
#165 = CC_DESIGN_DATE_AND_TIME_ASSIGNMENT ( #210, #44, ( #107 ) ) ;
#166 = DIRECTION ( 'NONE',  ( 0.0000000000000000000, 1.000000000000000000, 0.0000000000000000000 ) ) ;
#167 = DATE_TIME_ROLE ( 'classification_date' ) ;
#168 = DIRECTION ( 'NONE',  ( -3.491481338843133355E-15, 1.224646799147353207E-16, -1.000000000000000000 ) ) ;
#169 = AXIS2_PLACEMENT_3D ( 'NONE', #152, #201, #132 ) ;
#170 = DATE_AND_TIME ( #51, #84 ) ;
#171 = EDGE_LOOP ( 'NONE', ( #7 ) ) ;
#172 = ADVANCED_FACE ( 'NONE', ( #86, #65 ), #106, .T. ) ;
#173 = ORIENTED_EDGE ( 'NONE', *, *, #10, .F. ) ;
#174 = CARTESIAN_POINT ( 'NONE',  ( 5.237222008264700033E-14, -1.734723475976807094E-15, 15.00000000000000000 ) ) ;
#175 = UNCERTAINTY_MEASURE_WITH_UNIT (LENGTH_MEASURE( 1.000000000000000082E-05 ), #67, 'distance_accuracy_value', 'NONE');
#176 = LOCAL_TIME ( 15, 4, 22.00000000000000000, #299 ) ;
#177 = DIRECTION ( 'NONE',  ( -3.491481338843133355E-15, 1.224646799147353207E-16, -1.000000000000000000 ) ) ;
#178 = CARTESIAN_POINT ( 'NONE',  ( 2.444036937190193349E-14, 0.7849999999999990319, 7.000000000000000000 ) ) ;
#179 = DIRECTION ( 'NONE',  ( -3.491481338843133355E-15, 1.224646799147353207E-16, -1.000000000000000000 ) ) ;
#180 = VERTEX_POINT ( 'NONE', #214 ) ;
#181 = EDGE_CURVE ( 'NONE', #69, #69, #279, .T. ) ;
#182 = CALENDAR_DATE ( 2021, 1, 12 ) ;
#183 = DATE_AND_TIME ( #90, #176 ) ;
#184 = CIRCLE ( 'NONE', #227, 1.200000000000001732 ) ;
#185 = AXIS2_PLACEMENT_3D ( 'NONE', #28, #76, #244 ) ;
#186 = DIRECTION ( 'NONE',  ( 0.0000000000000000000, 0.0000000000000000000, 1.000000000000000000 ) ) ;
#187 = ORIENTED_EDGE ( 'NONE', *, *, #243, .T. ) ;
#188 = PRODUCT_DEFINITION_SHAPE ( 'NONE', 'NONE',  #107 ) ;
#189 = CYLINDRICAL_SURFACE ( 'NONE', #29, 1.499999999999998890 ) ;
#190 = AXIS2_PLACEMENT_3D ( 'NONE', #248, #177, #12 ) ;
#191 = ADVANCED_FACE ( 'NONE', ( #153, #223 ), #200, .T. ) ;
#192 = COORDINATED_UNIVERSAL_TIME_OFFSET ( 1, 0, .AHEAD. ) ;
#193 = CARTESIAN_POINT ( 'NONE',  ( 8.728703347107829444E-16, -3.061616997868381785E-17, 0.2499999999999998890 ) ) ;
#194 = DIRECTION ( 'NONE',  ( 4.275831445896958607E-31, 1.000000000000000000, 1.224646799147353454E-16 ) ) ;
#195 = DIRECTION ( 'NONE',  ( -3.491481338843133355E-15, 1.224646799147353207E-16, -1.000000000000000000 ) ) ;
#196 = CC_DESIGN_PERSON_AND_ORGANIZATION_ASSIGNMENT ( #140, #66, ( #116 ) ) ;
#197 = AXIS2_PLACEMENT_3D ( 'NONE', #19, #186, #110 ) ;
#198 = APPROVAL_DATE_TIME ( #8, #64 ) ;
#199 = EDGE_LOOP ( 'NONE', ( #246 ) ) ;
#200 = CYLINDRICAL_SURFACE ( 'NONE', #39, 0.6849999999999993872 ) ;
#201 = DIRECTION ( 'NONE',  ( -3.491481338843133355E-15, 1.224646799147353207E-16, -1.000000000000000000 ) ) ;
#202 = ADVANCED_FACE ( 'NONE', ( #205 ), #62, .T. ) ;
#203 = VERTEX_POINT ( 'NONE', #178 ) ;
#204 = VERTEX_POINT ( 'NONE', #294 ) ;
#205 = FACE_OUTER_BOUND ( 'NONE', #72, .T. ) ;
#206 = ADVANCED_FACE ( 'NONE', ( #133 ), #228, .F. ) ;
#207 = CIRCLE ( 'NONE', #131, 0.6406624327025948196 ) ;
#208 = APPROVAL_STATUS ( 'not_yet_approved' ) ;
#209 = APPLICATION_PROTOCOL_DEFINITION ( 'international standard', 'config_control_design', 1994, #245 ) ;
#210 = DATE_AND_TIME ( #26, #151 ) ;
#211 = APPROVAL_DATE_TIME ( #183, #273 ) ;
#212 = AXIS2_PLACEMENT_3D ( 'NONE', #231, #290, #102 ) ;
#213 = APPROVAL_PERSON_ORGANIZATION ( #52, #64, #78 ) ;
#214 = CARTESIAN_POINT ( 'NONE',  ( 2.504511167915743435E-14, 0.6849999999999980549, 7.173205080756891228 ) ) ;
#215 = ORIENTED_EDGE ( 'NONE', *, *, #16, .F. ) ;
#216 = CARTESIAN_POINT ( 'NONE',  ( 0.0000000000000000000, 0.0000000000000000000, 0.0000000000000000000 ) ) ;
#217 = SECURITY_CLASSIFICATION ( '', '', #93 ) ;
#218 = CYLINDRICAL_SURFACE ( 'NONE', #99, 0.7849999999999994760 ) ;
#219 = CC_DESIGN_PERSON_AND_ORGANIZATION_ASSIGNMENT ( #278, #256, ( #107 ) ) ;
#220 = EDGE_LOOP ( 'NONE', ( #187 ) ) ;
#221 = DIRECTION ( 'NONE',  ( 4.906827883789142341E-31, 1.000000000000000000, 1.381149264312746306E-16 ) ) ;
#222 = TOROIDAL_SURFACE ( 'NONE', #265, 2.685000000000000053, 2.000000000000000000 ) ;
#223 = FACE_OUTER_BOUND ( 'NONE', #135, .T. ) ;
#224 = DESIGN_CONTEXT ( 'detailed design', #301, 'design' ) ;
#225 = CARTESIAN_POINT ( 'NONE',  ( 8.728703347107829444E-16, -3.061616997868381785E-17, 0.2499999999999998890 ) ) ;
#226 = CARTESIAN_POINT ( 'NONE',  ( 1.735266225405037467E-13, 1.499999999999995559, 49.70000000000000284 ) ) ;
#227 = AXIS2_PLACEMENT_3D ( 'NONE', #250, #179, #82 ) ;
#228 = PLANE ( 'NONE',  #212 ) ;
#229 = PERSON ( 'UNSPECIFIED', 'UNSPECIFIED', 'UNSPECIFIED', ('UNSPECIFIED'), ('UNSPECIFIED'), ('UNSPECIFIED') ) ;
#230 = EDGE_CURVE ( 'NONE', #157, #157, #270, .T. ) ;
#231 = CARTESIAN_POINT ( 'NONE',  ( 2.444036937190193349E-14, 5.886557146947777289E-33, 7.000000000000000000 ) ) ;
#232 = CARTESIAN_POINT ( 'NONE',  ( 1.745740669421566678E-13, 1.199999999999995515, 50.00000000000000000 ) ) ;
#233 = AXIS2_PLACEMENT_3D ( 'NONE', #154, #37, #85 ) ;
#234 = APPLICATION_PROTOCOL_DEFINITION ( 'international standard', 'config_control_design', 1994, #301 ) ;
#235 = APPROVAL ( #208, 'UNSPECIFIED' ) ;
#236 = MECHANICAL_CONTEXT ( 'NONE', #245, 'mechanical' ) ;
#237 = PERSON_AND_ORGANIZATION_ROLE ( 'classification_officer' ) ;
#238 = CIRCLE ( 'NONE', #15, 0.7849999999999990319 ) ;
#239 = CC_DESIGN_SECURITY_CLASSIFICATION ( #217, ( #136 ) ) ;
#240 = DIRECTION ( 'NONE',  ( -3.491481338843133355E-15, 1.224646799147353207E-16, -1.000000000000000000 ) ) ;
#241 = FACE_OUTER_BOUND ( 'NONE', #149, .T. ) ;
#242 = AXIS2_PLACEMENT_3D ( 'NONE', #5, #284, #166 ) ;
#243 = EDGE_CURVE ( 'NONE', #112, #112, #184, .T. ) ;
#244 = DIRECTION ( 'NONE',  ( -4.275831445896958607E-31, -1.000000000000000000, -1.224646799147353207E-16 ) ) ;
#245 = APPLICATION_CONTEXT ( 'configuration controlled 3d designs of mechanical parts and assemblies' ) ;
#246 = ORIENTED_EDGE ( 'NONE', *, *, #120, .T. ) ;
#247 = FACE_OUTER_BOUND ( 'NONE', #161, .T. ) ;
#248 = CARTESIAN_POINT ( 'NONE',  ( 2.444036937190193349E-14, -8.572527594031473190E-16, 7.000000000000000000 ) ) ;
#249 = DIRECTION ( 'NONE',  ( 0.0000000000000000000, -1.000000000000000000, 0.0000000000000000000 ) ) ;
#250 = CARTESIAN_POINT ( 'NONE',  ( 1.745740669421566678E-13, -6.123233995736766085E-15, 50.00000000000000000 ) ) ;
#251 = AXIS2_PLACEMENT_3D ( 'NONE', #77, #168, #253 ) ;
#252 = CARTESIAN_POINT ( 'NONE',  ( 6.912110748678991751E-14, -2.424442086958568499E-15, 19.79707201004043782 ) ) ;
#253 = DIRECTION ( 'NONE',  ( 0.0000000000000000000, 1.000000000000000000, 0.0000000000000000000 ) ) ;
#254 = COORDINATED_UNIVERSAL_TIME_OFFSET ( 1, 0, .AHEAD. ) ;
#255 = ADVANCED_FACE ( 'NONE', ( #129, #36 ), #222, .F. ) ;
#256 = PERSON_AND_ORGANIZATION_ROLE ( 'creator' ) ;
#257 = ORIENTED_EDGE ( 'NONE', *, *, #130, .T. ) ;
#258 = PERSON_AND_ORGANIZATION_ROLE ( 'design_supplier' ) ;
#259 = ORIENTED_EDGE ( 'NONE', *, *, #230, .F. ) ;
#260 = PRODUCT_RELATED_PRODUCT_CATEGORY ( 'detail', '', ( #116 ) ) ;
#261 = AXIS2_PLACEMENT_3D ( 'NONE', #18, #83, #17 ) ;
#262 = CARTESIAN_POINT ( 'NONE',  ( 1.745740669421566678E-13, 8.998558695971067645E-33, 50.00000000000000000 ) ) ;
#263 = PLANE ( 'NONE',  #88 ) ;
#264 = DIRECTION ( 'NONE',  ( -3.491481338843133355E-15, 1.224646799147353207E-16, -1.000000000000000000 ) ) ;
#265 = AXIS2_PLACEMENT_3D ( 'NONE', #174, #127, #59 ) ;
#266 = CARTESIAN_POINT ( 'NONE',  ( 5.237222008264700033E-14, -1.836970198721029589E-15, 15.00000000000000000 ) ) ;
#267 = DIRECTION ( 'NONE',  ( 4.275831445896958607E-31, 1.000000000000000000, 1.224646799147353207E-16 ) ) ;
#268 = EDGE_CURVE ( 'NONE', #46, #46, #207, .T. ) ;
#269 = CARTESIAN_POINT ( 'NONE',  ( -2.739364575954599186E-31, 9.608397508296606325E-33, -7.845851975431893920E-17 ) ) ;
#270 = CIRCLE ( 'NONE', #261, 0.7153844939755820143 ) ;
#271 = FACE_BOUND ( 'NONE', #54, .T. ) ;
#272 = FACE_BOUND ( 'NONE', #145, .T. ) ;
#273 = APPROVAL ( #23, 'UNSPECIFIED' ) ;
#274 = VERTEX_POINT ( 'NONE', #63 ) ;
#275 = CIRCLE ( 'NONE', #288, 1.500000000000001554 ) ;
#276 = DIRECTION ( 'NONE',  ( 0.0000000000000000000, 1.000000000000000000, 0.0000000000000000000 ) ) ;
#277 = EDGE_LOOP ( 'NONE', ( #259 ) ) ;
#278 = PERSON_AND_ORGANIZATION ( #229, #142 ) ;
#279 = CIRCLE ( 'NONE', #190, 0.7849999999999999201 ) ;
#280 = EDGE_LOOP ( 'NONE', ( #138 ) ) ;
#281 = APPROVAL_ROLE ( '' ) ;
#282 = CC_DESIGN_APPROVAL ( #235, ( #107 ) ) ;
#283 = DIRECTION ( 'NONE',  ( -3.491481338843133355E-15, 1.224646799147353207E-16, -1.000000000000000000 ) ) ;
#284 = DIRECTION ( 'NONE',  ( -3.491481338843133355E-15, 1.224646799147353207E-16, -1.000000000000000000 ) ) ;
#285 = ADVANCED_FACE ( 'NONE', ( #87, #272 ), #73, .T. ) ;
#286 = FACE_OUTER_BOUND ( 'NONE', #141, .T. ) ;
#287 = DIRECTION ( 'NONE',  ( -3.491481338843133355E-15, 1.224646799147353207E-16, -1.000000000000000000 ) ) ;
#288 = AXIS2_PLACEMENT_3D ( 'NONE', #31, #74, #164 ) ;
#289 = EDGE_LOOP ( 'NONE', ( #3 ) ) ;
#290 = DIRECTION ( 'NONE',  ( 3.491481338843133355E-15, -1.224646799147353207E-16, 1.000000000000000000 ) ) ;
#291 = VERTEX_POINT ( 'NONE', #226 ) ;
#292 = CIRCLE ( 'NONE', #50, 0.6849999999999988320 ) ;
#293 = DIRECTION ( 'NONE',  ( 4.275831445896958607E-31, 1.000000000000000000, 1.224646799147353207E-16 ) ) ;
#294 = CARTESIAN_POINT ( 'NONE',  ( 6.912110748678991751E-14, 1.499999999999994005, 19.79707201004043782 ) ) ;
#295 = CARTESIAN_POINT ( 'NONE',  ( 8.728703347107833388E-16, 0.7849999999999990319, 0.2500000000000000000 ) ) ;
#296 = APPROVAL_PERSON_ORGANIZATION ( #22, #235, #281 ) ;
#297 = CARTESIAN_POINT ( 'NONE',  ( 0.0000000000000000000, 0.6406624327025948196, 0.0000000000000000000 ) ) ;
#298 = ADVANCED_FACE ( 'NONE', ( #271, #105 ), #111, .T. ) ;
#299 = COORDINATED_UNIVERSAL_TIME_OFFSET ( 1, 0, .AHEAD. ) ;
#300 = EDGE_LOOP ( 'NONE', ( #117 ) ) ;
#301 = APPLICATION_CONTEXT ( 'configuration controlled 3d designs of mechanical parts and assemblies' ) ;
#302 = AXIS2_PLACEMENT_3D ( 'NONE', #98, #240, #81 ) ;
#303 = PERSON_AND_ORGANIZATION ( #229, #142 ) ;
ENDSEC;
END-ISO-10303-21;
