ISO-10303-21;
HEADER;
FILE_DESCRIPTION (( 'STEP AP203' ),
    '1' );
FILE_NAME ('964652.step',
    '2021-12-01T07:27:28',
    ( '' ),
    ( '' ),
    'SwSTEP 2.0',
    'SolidWorks 2019',
    '' );
FILE_SCHEMA (( 'CONFIG_CONTROL_DESIGN' ));
ENDSEC;

DATA;
#1 = CC_DESIGN_APPROVAL ( #167, ( #217 ) ) ;
#2 = DIRECTION ( 'NONE',  ( -3.491481338843133355E-15, 1.224646799147353207E-16, -1.000000000000000000 ) ) ;
#3 = DIRECTION ( 'NONE',  ( 4.735893305870261358E-31, 1.000000000000000000, 1.333035457973983468E-16 ) ) ;
#4 = CARTESIAN_POINT ( 'NONE',  ( 1.326762908760390423E-13, -4.653657836759941941E-15, 38.00000000000000000 ) ) ;
#5 = ADVANCED_FACE ( 'NONE', ( #261, #278 ), #174, .T. ) ;
#6 = CARTESIAN_POINT ( 'NONE',  ( 1.396592535537253342E-14, 0.3049999999999993272, 4.000000000000000000 ) ) ;
#7 = AXIS2_PLACEMENT_3D ( 'NONE', #158, #156, #281 ) ;
#8 = DIRECTION ( 'NONE',  ( 0.0000000000000000000, 1.000000000000000000, 0.0000000000000000000 ) ) ;
#9 = DIRECTION ( 'NONE',  ( -3.491481338843133355E-15, 1.224646799147353207E-16, -1.000000000000000000 ) ) ;
#10 = APPROVAL_STATUS ( 'not_yet_approved' ) ;
#11 = CONICAL_SURFACE ( 'NONE', #7, 1.499999999999997113, 0.1745329251994260922 ) ;
#12 = CALENDAR_DATE ( 2021, 1, 12 ) ;
#13 = MECHANICAL_CONTEXT ( 'NONE', #31, 'mechanical' ) ;
#14 = CC_DESIGN_PERSON_AND_ORGANIZATION_ASSIGNMENT ( #58, #55, ( #75 ) ) ;
#15 = ORIENTED_EDGE ( 'NONE', *, *, #270, .T. ) ;
#16 = APPROVAL_PERSON_ORGANIZATION ( #36, #167, #127 ) ;
#17 = VERTEX_POINT ( 'NONE', #173 ) ;
#18 = CARTESIAN_POINT ( 'NONE',  ( 2.444036937190193349E-14, -8.673617379884035472E-16, 7.000000000000000000 ) ) ;
#19 = CARTESIAN_POINT ( 'NONE',  ( -5.840793907729757439E-32, 2.048674722675347613E-33, -1.672869862642612523E-17 ) ) ;
#20 = ADVANCED_BREP_SHAPE_REPRESENTATION ( '964652', ( #119, #117, #86 ), #279 ) ;
#21 = AXIS2_PLACEMENT_3D ( 'NONE', #169, #142, #90 ) ;
#22 = EDGE_LOOP ( 'NONE', ( #83 ) ) ;
#23 = EDGE_LOOP ( 'NONE', ( #280 ) ) ;
#24 = EDGE_LOOP ( 'NONE', ( #136 ) ) ;
#25 = FACE_OUTER_BOUND ( 'NONE', #130, .T. ) ;
#26 = VERTEX_POINT ( 'NONE', #206 ) ;
#27 = ADVANCED_FACE ( 'NONE', ( #202, #215 ), #11, .T. ) ;
#28 = CARTESIAN_POINT ( 'NONE',  ( 2.565294811559829420E-14, -8.997842963946611302E-16, 7.347296355333846840 ) ) ;
#29 = DIRECTION ( 'NONE',  ( 0.0000000000000000000, 1.000000000000000000, 0.0000000000000000000 ) ) ;
#30 = AXIS2_PLACEMENT_3D ( 'NONE', #219, #180, #178 ) ;
#31 = APPLICATION_CONTEXT ( 'configuration controlled 3d designs of mechanical parts and assemblies' ) ;
#32 = DIRECTION ( 'NONE',  ( -3.491481338843133355E-15, 1.224646799147353207E-16, -1.000000000000000000 ) ) ;
#33 = PERSON_AND_ORGANIZATION_ROLE ( 'design_supplier' ) ;
#34 = ORIENTED_EDGE ( 'NONE', *, *, #121, .F. ) ;
#35 = PERSON_AND_ORGANIZATION ( #239, #123 ) ;
#36 = PERSON_AND_ORGANIZATION ( #239, #123 ) ;
#37 = EDGE_CURVE ( 'NONE', #265, #265, #230, .T. ) ;
#38 = UNCERTAINTY_MEASURE_WITH_UNIT (LENGTH_MEASURE( 1.000000000000000082E-05 ), #120, 'distance_accuracy_value', 'NONE');
#39 = COORDINATED_UNIVERSAL_TIME_OFFSET ( 1, 0, .AHEAD. ) ;
#40 = LOCAL_TIME ( 8, 27, 28.00000000000000000, #39 ) ;
#41 = EDGE_CURVE ( 'NONE', #207, #207, #54, .T. ) ;
#42 = DIRECTION ( 'NONE',  ( 4.275831445896958607E-31, 1.000000000000000000, 1.224646799147353207E-16 ) ) ;
#43 = DIRECTION ( 'NONE',  ( -3.491481338843133355E-15, 1.224646799147353207E-16, -1.000000000000000000 ) ) ;
#44 = CARTESIAN_POINT ( 'NONE',  ( 1.396592535537253342E-14, -4.898587196589412829E-16, 4.000000000000000000 ) ) ;
#45 = AXIS2_PLACEMENT_3D ( 'NONE', #85, #2, #242 ) ;
#46 = DIRECTION ( 'NONE',  ( -3.491481338843133355E-15, 1.224646799147353207E-16, -1.000000000000000000 ) ) ;
#47 = EDGE_LOOP ( 'NONE', ( #272 ) ) ;
#48 = CARTESIAN_POINT ( 'NONE',  ( 0.0000000000000000000, 0.0000000000000000000, 0.0000000000000000000 ) ) ;
#49 = CARTESIAN_POINT ( 'NONE',  ( 4.731839565957901202E-32, 0.2472649730810377033, 1.355252715606880543E-17 ) ) ;
#50 = DIRECTION ( 'NONE',  ( 4.275831445896958607E-31, 1.000000000000000000, 1.224646799147353207E-16 ) ) ;
#51 = APPLICATION_CONTEXT ( 'configuration controlled 3d designs of mechanical parts and assemblies' ) ;
#52 = VERTEX_POINT ( 'NONE', #144 ) ;
#53 = PLANE ( 'NONE',  #188 ) ;
#54 = CIRCLE ( 'NONE', #45, 1.499999999999997113 ) ;
#55 = PERSON_AND_ORGANIZATION_ROLE ( 'creator' ) ;
#56 = DATE_AND_TIME ( #274, #249 ) ;
#57 = COORDINATED_UNIVERSAL_TIME_OFFSET ( 1, 0, .AHEAD. ) ;
#58 = PERSON_AND_ORGANIZATION ( #239, #123 ) ;
#59 = PERSON_AND_ORGANIZATION_ROLE ( 'creator' ) ;
#60 = AXIS2_PLACEMENT_3D ( 'NONE', #4, #94, #208 ) ;
#61 = EDGE_LOOP ( 'NONE', ( #126 ) ) ;
#62 = PRODUCT_DEFINITION_SHAPE ( 'NONE', 'NONE',  #217 ) ;
#63 = ORIENTED_EDGE ( 'NONE', *, *, #270, .F. ) ;
#64 = DIRECTION ( 'NONE',  ( -3.491481338843133355E-15, 1.224646799147353207E-16, -1.000000000000000000 ) ) ;
#65 = CC_DESIGN_DATE_AND_TIME_ASSIGNMENT ( #175, #172, ( #217 ) ) ;
#66 = AXIS2_PLACEMENT_3D ( 'NONE', #28, #68, #163 ) ;
#67 = DESIGN_CONTEXT ( 'detailed design', #51, 'design' ) ;
#68 = DIRECTION ( 'NONE',  ( -3.491481338843133355E-15, 1.224646799147353207E-16, -1.000000000000000000 ) ) ;
#69 = VERTEX_POINT ( 'NONE', #244 ) ;
#70 = AXIS2_PLACEMENT_3D ( 'NONE', #221, #111, #268 ) ;
#71 = FACE_OUTER_BOUND ( 'NONE', #102, .T. ) ;
#72 = CARTESIAN_POINT ( 'NONE',  ( 1.396592535537253342E-14, 2.287133668559324573E-33, 4.000000000000000000 ) ) ;
#73 = FACE_OUTER_BOUND ( 'NONE', #24, .T. ) ;
#74 = COORDINATED_UNIVERSAL_TIME_OFFSET ( 1, 0, .AHEAD. ) ;
#75 = PRODUCT_DEFINITION_FORMATION_WITH_SPECIFIED_SOURCE ( 'ANY', '', #232, .NOT_KNOWN. ) ;
#76 = PERSON_AND_ORGANIZATION_ROLE ( 'classification_officer' ) ;
#77 = EDGE_CURVE ( 'NONE', #69, #69, #258, .T. ) ;
#78 = AXIS2_PLACEMENT_3D ( 'NONE', #168, #247, #223 ) ;
#79 = PERSON_AND_ORGANIZATION ( #239, #123 ) ;
#80 = CARTESIAN_POINT ( 'NONE',  ( 1.316288464743861212E-13, -4.616918432785521081E-15, 37.69999999999999574 ) ) ;
#81 = LOCAL_TIME ( 8, 27, 28.00000000000000000, #74 ) ;
#82 = APPROVAL_DATE_TIME ( #161, #97 ) ;
#83 = ORIENTED_EDGE ( 'NONE', *, *, #143, .F. ) ;
#84 = ORIENTED_EDGE ( 'NONE', *, *, #229, .T. ) ;
#85 = CARTESIAN_POINT ( 'NONE',  ( 4.871370313944108944E-14, -1.708646698484078607E-15, 13.95215910149526373 ) ) ;
#86 = AXIS2_PLACEMENT_3D ( 'NONE', #125, #147, #254 ) ;
#87 = FACE_OUTER_BOUND ( 'NONE', #22, .T. ) ;
#88 = ADVANCED_FACE ( 'NONE', ( #87 ), #237, .F. ) ;
#89 = CARTESIAN_POINT ( 'NONE',  ( 1.396592535537253342E-14, -4.898587196589412829E-16, 4.000000000000000000 ) ) ;
#90 = DIRECTION ( 'NONE',  ( -4.275831445896958607E-31, -1.000000000000000000, -1.224646799147353207E-16 ) ) ;
#91 = CLOSED_SHELL ( 'NONE', ( #146, #5, #240, #196 ) ) ;
#92 = PLANE ( 'NONE',  #216 ) ;
#93 = DIRECTION ( 'NONE',  ( 3.491481338843133355E-15, -1.224646799147353207E-16, 1.000000000000000000 ) ) ;
#94 = DIRECTION ( 'NONE',  ( -3.491481338843133355E-15, 1.224646799147353207E-16, -1.000000000000000000 ) ) ;
#95 = CIRCLE ( 'NONE', #199, 0.2472649730810377033 ) ;
#96 = ADVANCED_FACE ( 'NONE', ( #184, #213 ), #150, .F. ) ;
#97 = APPROVAL ( #134, 'UNSPECIFIED' ) ;
#98 = CALENDAR_DATE ( 2021, 1, 12 ) ;
#99 = APPLICATION_PROTOCOL_DEFINITION ( 'international standard', 'config_control_design', 1994, #51 ) ;
#100 = EDGE_LOOP ( 'NONE', ( #181 ) ) ;
#101 = CIRCLE ( 'NONE', #211, 0.3049999999999998268 ) ;
#102 = EDGE_LOOP ( 'NONE', ( #138 ) ) ;
#103 = DIRECTION ( 'NONE',  ( 4.399200990162973122E-31, 1.000000000000000000, 1.224646799147353207E-16 ) ) ;
#104 = CARTESIAN_POINT ( 'NONE',  ( 2.444036937190193349E-14, -8.572527594031473190E-16, 7.000000000000000000 ) ) ;
#105 = CIRCLE ( 'NONE', #179, 0.3049999999999993827 ) ;
#106 = APPROVAL ( #231, 'UNSPECIFIED' ) ;
#107 = ORIENTED_EDGE ( 'NONE', *, *, #143, .T. ) ;
#108 = DIRECTION ( 'NONE',  ( 0.0000000000000000000, 1.000000000000000000, 0.0000000000000000000 ) ) ;
#109 = EDGE_LOOP ( 'NONE', ( #63 ) ) ;
#110 = SECURITY_CLASSIFICATION ( '', '', #273 ) ;
#111 = DIRECTION ( 'NONE',  ( -3.491481338843133355E-15, 1.224646799147353207E-16, -1.000000000000000000 ) ) ;
#112 = FACE_OUTER_BOUND ( 'NONE', #109, .T. ) ;
#113 = FACE_OUTER_BOUND ( 'NONE', #201, .T. ) ;
#114 = EDGE_CURVE ( 'NONE', #187, #187, #95, .T. ) ;
#115 = CIRCLE ( 'NONE', #170, 0.3050000000000001599 ) ;
#116 = FACE_OUTER_BOUND ( 'NONE', #61, .T. ) ;
#117 = MANIFOLD_SOLID_BREP ( 'Corps-Déplacer/Copier1[2]', #91 ) ;
#118 = FACE_OUTER_BOUND ( 'NONE', #260, .T. ) ;
#119 = MANIFOLD_SOLID_BREP ( 'Corps-Déplacer/Copier1[1]', #241 ) ;
#120 =( LENGTH_UNIT ( ) NAMED_UNIT ( * ) SI_UNIT ( .MILLI., .METRE. ) );
#121 = EDGE_CURVE ( 'NONE', #26, #26, #115, .T. ) ;
#122 = DATE_TIME_ROLE ( 'classification_date' ) ;
#123 = ORGANIZATION ( 'UNSPECIFIED', 'UNSPECIFIED', '' ) ;
#124 = APPROVAL_ROLE ( '' ) ;
#125 = CARTESIAN_POINT ( 'NONE',  ( 0.0000000000000000000, 0.0000000000000000000, 0.0000000000000000000 ) ) ;
#126 = ORIENTED_EDGE ( 'NONE', *, *, #37, .F. ) ;
#127 = APPROVAL_ROLE ( '' ) ;
#128 = AXIS2_PLACEMENT_3D ( 'NONE', #48, #141, #50 ) ;
#129 = PERSON_AND_ORGANIZATION ( #239, #123 ) ;
#130 = EDGE_LOOP ( 'NONE', ( #15 ) ) ;
#131 = APPROVAL_ROLE ( '' ) ;
#132 = DIRECTION ( 'NONE',  ( 4.275831445896958607E-31, 1.000000000000000000, 1.224646799147353207E-16 ) ) ;
#133 = ADVANCED_FACE ( 'NONE', ( #116, #118 ), #224, .T. ) ;
#134 = APPROVAL_STATUS ( 'not_yet_approved' ) ;
#135 = EDGE_LOOP ( 'NONE', ( #259 ) ) ;
#136 = ORIENTED_EDGE ( 'NONE', *, *, #37, .T. ) ;
#137 = COORDINATED_UNIVERSAL_TIME_OFFSET ( 1, 0, .AHEAD. ) ;
#138 = ORIENTED_EDGE ( 'NONE', *, *, #114, .T. ) ;
#139 = DIRECTION ( 'NONE',  ( -4.275831445896958607E-31, -1.000000000000000000, -1.224646799147353207E-16 ) ) ;
#140 = APPROVAL_PERSON_ORGANIZATION ( #35, #106, #124 ) ;
#141 = DIRECTION ( 'NONE',  ( -3.491481338843133355E-15, 1.224646799147353207E-16, -1.000000000000000000 ) ) ;
#142 = DIRECTION ( 'NONE',  ( 3.491481338843133355E-15, -1.224646799147353207E-16, 1.000000000000000000 ) ) ;
#143 = EDGE_CURVE ( 'NONE', #52, #52, #266, .T. ) ;
#144 = CARTESIAN_POINT ( 'NONE',  ( 1.326762908760390423E-13, 1.199999999999998845, 38.00000000000000000 ) ) ;
#145 = FACE_OUTER_BOUND ( 'NONE', #23, .T. ) ;
#146 = ADVANCED_FACE ( 'NONE', ( #71 ), #92, .F. ) ;
#147 = DIRECTION ( 'NONE',  ( 0.0000000000000000000, 0.0000000000000000000, 1.000000000000000000 ) ) ;
#148 = CALENDAR_DATE ( 2021, 1, 12 ) ;
#149 = APPLICATION_PROTOCOL_DEFINITION ( 'international standard', 'config_control_design', 1994, #31 ) ;
#150 = TOROIDAL_SURFACE ( 'NONE', #165, 2.305000000000000160, 2.000000000000000444 ) ;
#151 = PRODUCT_RELATED_PRODUCT_CATEGORY ( 'detail', '', ( #232 ) ) ;
#152 = PERSON_AND_ORGANIZATION ( #239, #123 ) ;
#153 = CARTESIAN_POINT ( 'NONE',  ( 2.565294811559829420E-14, 0.3353844939755799559, 7.347296355333846840 ) ) ;
#154 = DIRECTION ( 'NONE',  ( 0.0000000000000000000, 1.000000000000000000, 0.0000000000000000000 ) ) ;
#155 = APPROVAL_PERSON_ORGANIZATION ( #129, #97, #131 ) ;
#156 = DIRECTION ( 'NONE',  ( 3.491481338843133355E-15, -1.224646799147353207E-16, 1.000000000000000000 ) ) ;
#157 = CC_DESIGN_PERSON_AND_ORGANIZATION_ASSIGNMENT ( #271, #76, ( #110 ) ) ;
#158 = CARTESIAN_POINT ( 'NONE',  ( 4.871370313944108944E-14, -1.708646698484078607E-15, 13.95215910149526373 ) ) ;
#159 = CARTESIAN_POINT ( 'NONE',  ( 1.326762908760390423E-13, 8.998558695971103225E-33, 38.00000000000000000 ) ) ;
#160 = CONICAL_SURFACE ( 'NONE', #255, 1.200000000000003286, 0.7853981633974453924 ) ;
#161 = DATE_AND_TIME ( #218, #210 ) ;
#162 = EDGE_LOOP ( 'NONE', ( #195 ) ) ;
#163 = DIRECTION ( 'NONE',  ( 0.0000000000000000000, 1.000000000000000000, 0.0000000000000000000 ) ) ;
#164 = CYLINDRICAL_SURFACE ( 'NONE', #78, 1.500000000000000222 ) ;
#165 = AXIS2_PLACEMENT_3D ( 'NONE', #18, #283, #103 ) ;
#166 = CARTESIAN_POINT ( 'NONE',  ( -2.920396953864878720E-32, 1.024337361337673806E-33, -8.364349313213062613E-18 ) ) ;
#167 = APPROVAL ( #10, 'UNSPECIFIED' ) ;
#168 = CARTESIAN_POINT ( 'NONE',  ( 0.0000000000000000000, 0.0000000000000000000, 0.0000000000000000000 ) ) ;
#169 = CARTESIAN_POINT ( 'NONE',  ( 1.396592535537253342E-14, 2.287133668559324573E-33, 4.000000000000000000 ) ) ;
#170 = AXIS2_PLACEMENT_3D ( 'NONE', #104, #46, #29 ) ;
#171 = APPROVAL_DATE_TIME ( #193, #106 ) ;
#172 = DATE_TIME_ROLE ( 'creation_date' ) ;
#173 = CARTESIAN_POINT ( 'NONE',  ( 3.491481338843134834E-16, 0.3049999999999993827, 0.1000000000000000333 ) ) ;
#174 = CONICAL_SURFACE ( 'NONE', #30, 0.3049999999999993827, 0.5235987755982921543 ) ;
#175 = DATE_AND_TIME ( #12, #40 ) ;
#176 = CC_DESIGN_PERSON_AND_ORGANIZATION_ASSIGNMENT ( #234, #59, ( #217 ) ) ;
#177 = ADVANCED_FACE ( 'NONE', ( #113, #189 ), #160, .T. ) ;
#178 = DIRECTION ( 'NONE',  ( -4.735893305870261358E-31, -1.000000000000000000, -1.333035457973983468E-16 ) ) ;
#179 = AXIS2_PLACEMENT_3D ( 'NONE', #243, #32, #3 ) ;
#180 = DIRECTION ( 'NONE',  ( 3.491481338843133355E-15, -1.224646799147353207E-16, 1.000000000000000000 ) ) ;
#181 = ORIENTED_EDGE ( 'NONE', *, *, #41, .T. ) ;
#182 = EDGE_LOOP ( 'NONE', ( #107 ) ) ;
#183 = AXIS2_PLACEMENT_3D ( 'NONE', #44, #64, #154 ) ;
#184 = FACE_OUTER_BOUND ( 'NONE', #198, .T. ) ;
#185 = CARTESIAN_POINT ( 'NONE',  ( 4.871370313944108944E-14, 1.499999999999995559, 13.95215910149526373 ) ) ;
#186 = ADVANCED_FACE ( 'NONE', ( #73 ), #203, .F. ) ;
#187 = VERTEX_POINT ( 'NONE', #49 ) ;
#188 = AXIS2_PLACEMENT_3D ( 'NONE', #72, #93, #139 ) ;
#189 = FACE_BOUND ( 'NONE', #182, .T. ) ;
#190 = FACE_OUTER_BOUND ( 'NONE', #277, .T. ) ;
#191 = DIRECTION ( 'NONE',  ( 0.0000000000000000000, 1.000000000000000000, 0.0000000000000000000 ) ) ;
#192 = AXIS2_PLACEMENT_3D ( 'NONE', #159, #236, #42 ) ;
#193 = DATE_AND_TIME ( #98, #81 ) ;
#194 = VERTEX_POINT ( 'NONE', #233 ) ;
#195 = ORIENTED_EDGE ( 'NONE', *, *, #229, .F. ) ;
#196 = ADVANCED_FACE ( 'NONE', ( #112 ), #53, .T. ) ;
#197 = ORIENTED_EDGE ( 'NONE', *, *, #77, .F. ) ;
#198 = EDGE_LOOP ( 'NONE', ( #34 ) ) ;
#199 = AXIS2_PLACEMENT_3D ( 'NONE', #19, #43, #132 ) ;
#200 = EDGE_LOOP ( 'NONE', ( #238 ) ) ;
#201 = EDGE_LOOP ( 'NONE', ( #197 ) ) ;
#202 = FACE_BOUND ( 'NONE', #162, .T. ) ;
#203 = PLANE ( 'NONE',  #21 ) ;
#204 = ADVANCED_FACE ( 'NONE', ( #264, #190 ), #164, .T. ) ;
#205 = CC_DESIGN_DATE_AND_TIME_ASSIGNMENT ( #228, #122, ( #110 ) ) ;
#206 = CARTESIAN_POINT ( 'NONE',  ( 2.444036937190193349E-14, 0.3049999999999992717, 7.000000000000000000 ) ) ;
#207 = VERTEX_POINT ( 'NONE', #185 ) ;
#208 = DIRECTION ( 'NONE',  ( 0.0000000000000000000, 1.000000000000000000, 0.0000000000000000000 ) ) ;
#209 = DIRECTION ( 'NONE',  ( -4.275831445896958607E-31, -1.000000000000000000, -1.224646799147353207E-16 ) ) ;
#210 = LOCAL_TIME ( 8, 27, 28.00000000000000000, #137 ) ;
#211 = AXIS2_PLACEMENT_3D ( 'NONE', #89, #225, #8 ) ;
#212 = PERSON_AND_ORGANIZATION_ROLE ( 'design_owner' ) ;
#213 = FACE_OUTER_BOUND ( 'NONE', #214, .T. ) ;
#214 = EDGE_LOOP ( 'NONE', ( #84 ) ) ;
#215 = FACE_OUTER_BOUND ( 'NONE', #100, .T. ) ;
#216 = AXIS2_PLACEMENT_3D ( 'NONE', #166, #248, #209 ) ;
#217 = PRODUCT_DEFINITION ( 'UNKNOWN', '', #75, #67 ) ;
#218 = CALENDAR_DATE ( 2021, 1, 12 ) ;
#219 = CARTESIAN_POINT ( 'NONE',  ( 3.491481338843133355E-16, -1.224646799147353115E-17, 0.09999999999999999167 ) ) ;
#220 = ORIENTED_EDGE ( 'NONE', *, *, #121, .T. ) ;
#221 = CARTESIAN_POINT ( 'NONE',  ( 0.0000000000000000000, 0.0000000000000000000, 0.0000000000000000000 ) ) ;
#222 = CC_DESIGN_APPROVAL ( #97, ( #110 ) ) ;
#223 = DIRECTION ( 'NONE',  ( 4.275831445896959482E-31, 1.000000000000000000, 1.224646799147353207E-16 ) ) ;
#224 = CYLINDRICAL_SURFACE ( 'NONE', #128, 0.3049999999999999933 ) ;
#225 = DIRECTION ( 'NONE',  ( -3.491481338843133355E-15, 1.224646799147353207E-16, -1.000000000000000000 ) ) ;
#226 = CYLINDRICAL_SURFACE ( 'NONE', #70, 0.3049999999999996048 ) ;
#227 =( NAMED_UNIT ( * ) PLANE_ANGLE_UNIT ( ) SI_UNIT ( $, .RADIAN. ) );
#228 = DATE_AND_TIME ( #148, #269 ) ;
#229 = EDGE_CURVE ( 'NONE', #257, #257, #275, .T. ) ;
#230 = CIRCLE ( 'NONE', #183, 0.3049999999999998268 ) ;
#231 = APPROVAL_STATUS ( 'not_yet_approved' ) ;
#232 = PRODUCT ( '964652', '964652', '', ( #13 ) ) ;
#233 = CARTESIAN_POINT ( 'NONE',  ( 1.396592535537253342E-14, 0.3049999999999993272, 4.000000000000000000 ) ) ;
#234 = PERSON_AND_ORGANIZATION ( #239, #123 ) ;
#235 = CC_DESIGN_APPROVAL ( #106, ( #75 ) ) ;
#236 = DIRECTION ( 'NONE',  ( -3.491481338843133355E-15, 1.224646799147353207E-16, -1.000000000000000000 ) ) ;
#237 = PLANE ( 'NONE',  #192 ) ;
#238 = ORIENTED_EDGE ( 'NONE', *, *, #114, .F. ) ;
#239 = PERSON ( 'UNSPECIFIED', 'UNSPECIFIED', 'UNSPECIFIED', ('UNSPECIFIED'), ('UNSPECIFIED'), ('UNSPECIFIED') ) ;
#240 = ADVANCED_FACE ( 'NONE', ( #145, #25 ), #226, .T. ) ;
#241 = CLOSED_SHELL ( 'NONE', ( #186, #133, #96, #27, #204, #177, #88 ) ) ;
#242 = DIRECTION ( 'NONE',  ( 0.0000000000000000000, 1.000000000000000000, 0.0000000000000000000 ) ) ;
#243 = CARTESIAN_POINT ( 'NONE',  ( 3.491481338843133355E-16, -1.224646799147353115E-17, 0.09999999999999999167 ) ) ;
#244 = CARTESIAN_POINT ( 'NONE',  ( 1.316288464743861212E-13, 1.499999999999998668, 37.69999999999999574 ) ) ;
#245 = CC_DESIGN_SECURITY_CLASSIFICATION ( #110, ( #75 ) ) ;
#246 = CARTESIAN_POINT ( 'NONE',  ( 1.326762908760390423E-13, -4.653657836759941941E-15, 38.00000000000000000 ) ) ;
#247 = DIRECTION ( 'NONE',  ( -3.491481338843133355E-15, 1.224646799147353207E-16, -1.000000000000000000 ) ) ;
#248 = DIRECTION ( 'NONE',  ( 3.491481338843133355E-15, -1.224646799147353207E-16, 1.000000000000000000 ) ) ;
#249 = LOCAL_TIME ( 8, 27, 28.00000000000000000, #57 ) ;
#250 = APPROVAL_DATE_TIME ( #56, #167 ) ;
#251 = EDGE_CURVE ( 'NONE', #17, #17, #105, .T. ) ;
#252 = COORDINATED_UNIVERSAL_TIME_OFFSET ( 1, 0, .AHEAD. ) ;
#253 = CC_DESIGN_PERSON_AND_ORGANIZATION_ASSIGNMENT ( #152, #33, ( #75 ) ) ;
#254 = DIRECTION ( 'NONE',  ( 1.000000000000000000, 0.0000000000000000000, 0.0000000000000000000 ) ) ;
#255 = AXIS2_PLACEMENT_3D ( 'NONE', #246, #9, #191 ) ;
#256 = AXIS2_PLACEMENT_3D ( 'NONE', #80, #262, #108 ) ;
#257 = VERTEX_POINT ( 'NONE', #153 ) ;
#258 = CIRCLE ( 'NONE', #256, 1.500000000000003331 ) ;
#259 = ORIENTED_EDGE ( 'NONE', *, *, #41, .F. ) ;
#260 = EDGE_LOOP ( 'NONE', ( #220 ) ) ;
#261 = FACE_BOUND ( 'NONE', #200, .T. ) ;
#262 = DIRECTION ( 'NONE',  ( -3.491481338843133355E-15, 1.224646799147353207E-16, -1.000000000000000000 ) ) ;
#263 = ORIENTED_EDGE ( 'NONE', *, *, #77, .T. ) ;
#264 = FACE_OUTER_BOUND ( 'NONE', #135, .T. ) ;
#265 = VERTEX_POINT ( 'NONE', #6 ) ;
#266 = CIRCLE ( 'NONE', #60, 1.200000000000003286 ) ;
#267 = CC_DESIGN_PERSON_AND_ORGANIZATION_ASSIGNMENT ( #79, #212, ( #232 ) ) ;
#268 = DIRECTION ( 'NONE',  ( 4.275831445896958607E-31, 1.000000000000000000, 1.224646799147353207E-16 ) ) ;
#269 = LOCAL_TIME ( 8, 27, 28.00000000000000000, #252 ) ;
#270 = EDGE_CURVE ( 'NONE', #194, #194, #101, .T. ) ;
#271 = PERSON_AND_ORGANIZATION ( #239, #123 ) ;
#272 = ORIENTED_EDGE ( 'NONE', *, *, #251, .T. ) ;
#273 = SECURITY_CLASSIFICATION_LEVEL ( 'unclassified' ) ;
#274 = CALENDAR_DATE ( 2021, 1, 12 ) ;
#275 = CIRCLE ( 'NONE', #66, 0.3353844939755808441 ) ;
#276 =( NAMED_UNIT ( * ) SI_UNIT ( $, .STERADIAN. ) SOLID_ANGLE_UNIT ( ) );
#277 = EDGE_LOOP ( 'NONE', ( #263 ) ) ;
#278 = FACE_OUTER_BOUND ( 'NONE', #47, .T. ) ;
#279 =( GEOMETRIC_REPRESENTATION_CONTEXT ( 3 ) GLOBAL_UNCERTAINTY_ASSIGNED_CONTEXT ( ( #38 ) ) GLOBAL_UNIT_ASSIGNED_CONTEXT ( ( #120, #227, #276 ) ) REPRESENTATION_CONTEXT ( 'NONE', 'WORKASPACE' ) );
#280 = ORIENTED_EDGE ( 'NONE', *, *, #251, .F. ) ;
#281 = DIRECTION ( 'NONE',  ( 0.0000000000000000000, -1.000000000000000000, 0.0000000000000000000 ) ) ;
#282 = SHAPE_DEFINITION_REPRESENTATION ( #62, #20 ) ;
#283 = DIRECTION ( 'NONE',  ( -3.491481338843133355E-15, 1.224646799147353207E-16, -1.000000000000000000 ) ) ;
ENDSEC;
END-ISO-10303-21;
