ISO-10303-21;
HEADER;
FILE_DESCRIPTION (( 'STEP AP203' ),
    '1' );
FILE_NAME ('964624.step',
    '2021-11-29T14:49:37',
    ( '' ),
    ( '' ),
    'SwSTEP 2.0',
    'SolidWorks 2019',
    '' );
FILE_SCHEMA (( 'CONFIG_CONTROL_DESIGN' ));
ENDSEC;

DATA;
#1 = PERSON_AND_ORGANIZATION ( #73, #161 ) ;
#2 = DIRECTION ( 'NONE',  ( -4.275831445896957731E-31, -1.000000000000000000, -1.224646799147352961E-16 ) ) ;
#3 = FACE_OUTER_BOUND ( 'NONE', #193, .T. ) ;
#4 = SECURITY_CLASSIFICATION_LEVEL ( 'unclassified' ) ;
#5 = PLANE ( 'NONE',  #130 ) ;
#6 = EDGE_LOOP ( 'NONE', ( #136 ) ) ;
#7 = AXIS2_PLACEMENT_3D ( 'NONE', #235, #209, #231 ) ;
#8 = CARTESIAN_POINT ( 'NONE',  ( 1.326762908760390423E-13, 8.998558695971099120E-33, 38.00000000000000000 ) ) ;
#9 = DIRECTION ( 'NONE',  ( 4.275831445896957731E-31, 1.000000000000000000, 1.224646799147352961E-16 ) ) ;
#10 =( LENGTH_UNIT ( ) NAMED_UNIT ( * ) SI_UNIT ( .MILLI., .METRE. ) );
#11 = ADVANCED_FACE ( 'NONE', ( #166 ), #259, .F. ) ;
#12 = FACE_BOUND ( 'NONE', #113, .T. ) ;
#13 = CIRCLE ( 'NONE', #179, 0.4084999999999993636 ) ;
#14 = AXIS2_PLACEMENT_3D ( 'NONE', #137, #293, #222 ) ;
#15 = LOCAL_TIME ( 15, 49, 37.00000000000000000, #289 ) ;
#16 = DATE_AND_TIME ( #244, #15 ) ;
#17 = APPROVAL_ROLE ( '' ) ;
#18 = CARTESIAN_POINT ( 'NONE',  ( 1.769023248250903903E-14, -6.204898289118584630E-16, 5.066683956091403651 ) ) ;
#19 = ORIENTED_EDGE ( 'NONE', *, *, #123, .T. ) ;
#20 = CARTESIAN_POINT ( 'NONE',  ( 1.745740669421566678E-14, 0.4084999999999993636, 5.000000000000000000 ) ) ;
#21 = PERSON_AND_ORGANIZATION ( #73, #161 ) ;
#22 = CARTESIAN_POINT ( 'NONE',  ( 1.326762908760390423E-13, 1.199999999999998845, 38.00000000000000000 ) ) ;
#23 = CARTESIAN_POINT ( 'NONE',  ( 0.0000000000000000000, 0.0000000000000000000, 0.0000000000000000000 ) ) ;
#24 = AXIS2_PLACEMENT_3D ( 'NONE', #157, #250, #223 ) ;
#25 = AXIS2_PLACEMENT_3D ( 'NONE', #96, #243, #63 ) ;
#26 = CC_DESIGN_APPROVAL ( #139, ( #159 ) ) ;
#27 = FACE_BOUND ( 'NONE', #295, .T. ) ;
#28 =( NAMED_UNIT ( * ) PLANE_ANGLE_UNIT ( ) SI_UNIT ( $, .RADIAN. ) );
#29 = DIRECTION ( 'NONE',  ( 4.275831445896957731E-31, 1.000000000000000000, 1.224646799147352961E-16 ) ) ;
#30 = CARTESIAN_POINT ( 'NONE',  ( 5.440958946549379140E-14, -1.908431496985073664E-15, 15.58352578322009485 ) ) ;
#31 = FACE_BOUND ( 'NONE', #226, .T. ) ;
#32 = COORDINATED_UNIVERSAL_TIME_OFFSET ( 1, 0, .AHEAD. ) ;
#33 = FACE_OUTER_BOUND ( 'NONE', #6, .T. ) ;
#34 = APPROVAL_ROLE ( '' ) ;
#35 = CC_DESIGN_SECURITY_CLASSIFICATION ( #106, ( #224 ) ) ;
#36 = DIRECTION ( 'NONE',  ( 0.0000000000000000000, 0.0000000000000000000, 1.000000000000000000 ) ) ;
#37 = ADVANCED_FACE ( 'NONE', ( #27, #277 ), #230, .T. ) ;
#38 = AXIS2_PLACEMENT_3D ( 'NONE', #53, #168, #210 ) ;
#39 = APPROVAL_STATUS ( 'not_yet_approved' ) ;
#40 = CARTESIAN_POINT ( 'NONE',  ( 1.326762908760390423E-13, -4.653657836759941152E-15, 38.00000000000000000 ) ) ;
#41 = FACE_BOUND ( 'NONE', #91, .T. ) ;
#42 = CC_DESIGN_DATE_AND_TIME_ASSIGNMENT ( #127, #132, ( #106 ) ) ;
#43 = DIRECTION ( 'NONE',  ( 0.0000000000000000000, 1.000000000000000000, 0.0000000000000000000 ) ) ;
#44 = AXIS2_PLACEMENT_3D ( 'NONE', #282, #128, #102 ) ;
#45 = VERTEX_POINT ( 'NONE', #140 ) ;
#46 = EDGE_LOOP ( 'NONE', ( #69 ) ) ;
#47 = ORIENTED_EDGE ( 'NONE', *, *, #263, .T. ) ;
#48 = EDGE_CURVE ( 'NONE', #59, #59, #66, .T. ) ;
#49 = ORIENTED_EDGE ( 'NONE', *, *, #48, .F. ) ;
#50 = CIRCLE ( 'NONE', #241, 0.3699999999999998845 ) ;
#51 = EDGE_LOOP ( 'NONE', ( #258 ) ) ;
#52 = PERSON_AND_ORGANIZATION_ROLE ( 'classification_officer' ) ;
#53 = CARTESIAN_POINT ( 'NONE',  ( 5.440958946549379140E-14, -1.908431496985073664E-15, 15.58352578322009485 ) ) ;
#54 = DIRECTION ( 'NONE',  ( -4.714638786749666478E-31, -1.000000000000000000, -1.327052842699517832E-16 ) ) ;
#55 = AXIS2_PLACEMENT_3D ( 'NONE', #40, #138, #204 ) ;
#56 = PLANE ( 'NONE',  #135 ) ;
#57 = CARTESIAN_POINT ( 'NONE',  ( 0.0000000000000000000, 0.0000000000000000000, 0.0000000000000000000 ) ) ;
#58 = EDGE_CURVE ( 'NONE', #273, #273, #13, .T. ) ;
#59 = VERTEX_POINT ( 'NONE', #185 ) ;
#60 = CC_DESIGN_APPROVAL ( #238, ( #224 ) ) ;
#61 = PERSON_AND_ORGANIZATION ( #73, #161 ) ;
#62 = APPROVAL_DATE_TIME ( #183, #139 ) ;
#63 = DIRECTION ( 'NONE',  ( 4.275831445896957731E-31, 1.000000000000000000, 1.224646799147352961E-16 ) ) ;
#64 = CC_DESIGN_PERSON_AND_ORGANIZATION_ASSIGNMENT ( #21, #125, ( #224 ) ) ;
#65 = CARTESIAN_POINT ( 'NONE',  ( 1.769023248250903903E-14, 0.3699999999999987743, 5.066683956091403651 ) ) ;
#66 = CIRCLE ( 'NONE', #38, 1.499999999999997335 ) ;
#67 = LOCAL_TIME ( 15, 49, 37.00000000000000000, #74 ) ;
#68 = VERTEX_POINT ( 'NONE', #158 ) ;
#69 = ORIENTED_EDGE ( 'NONE', *, *, #150, .T. ) ;
#70 = CARTESIAN_POINT ( 'NONE',  ( 3.491481338843131876E-16, -1.224646799147352344E-17, 0.09999999999999995004 ) ) ;
#71 = FACE_OUTER_BOUND ( 'NONE', #299, .T. ) ;
#72 = EDGE_LOOP ( 'NONE', ( #121 ) ) ;
#73 = PERSON ( 'UNSPECIFIED', 'UNSPECIFIED', 'UNSPECIFIED', ('UNSPECIFIED'), ('UNSPECIFIED'), ('UNSPECIFIED') ) ;
#74 = COORDINATED_UNIVERSAL_TIME_OFFSET ( 1, 0, .AHEAD. ) ;
#75 = CONICAL_SURFACE ( 'NONE', #55, 1.200000000000003286, 0.7853981633974453924 ) ;
#76 = CC_DESIGN_PERSON_AND_ORGANIZATION_ASSIGNMENT ( #190, #52, ( #106 ) ) ;
#77 = ORIENTED_EDGE ( 'NONE', *, *, #208, .F. ) ;
#78 = FACE_OUTER_BOUND ( 'NONE', #163, .T. ) ;
#79 = DIRECTION ( 'NONE',  ( -3.491481338843133355E-15, 1.224646799147352961E-16, -1.000000000000000000 ) ) ;
#80 = AXIS2_PLACEMENT_3D ( 'NONE', #124, #237, #215 ) ;
#81 = EDGE_CURVE ( 'NONE', #68, #68, #206, .T. ) ;
#82 = COORDINATED_UNIVERSAL_TIME_OFFSET ( 1, 0, .AHEAD. ) ;
#83 = PLANE ( 'NONE',  #279 ) ;
#84 = EDGE_LOOP ( 'NONE', ( #220 ) ) ;
#85 = COORDINATED_UNIVERSAL_TIME_OFFSET ( 1, 0, .AHEAD. ) ;
#86 = VERTEX_POINT ( 'NONE', #247 ) ;
#87 = EDGE_LOOP ( 'NONE', ( #203 ) ) ;
#88 = VERTEX_POINT ( 'NONE', #20 ) ;
#89 = FACE_OUTER_BOUND ( 'NONE', #143, .T. ) ;
#90 = ADVANCED_FACE ( 'NONE', ( #3, #303 ), #142, .T. ) ;
#91 = EDGE_LOOP ( 'NONE', ( #251 ) ) ;
#92 = DIRECTION ( 'NONE',  ( -3.491481338843133355E-15, 1.224646799147352961E-16, -1.000000000000000000 ) ) ;
#93 = FACE_OUTER_BOUND ( 'NONE', #72, .T. ) ;
#94 = DIRECTION ( 'NONE',  ( -3.491481338843133355E-15, 1.224646799147352961E-16, -1.000000000000000000 ) ) ;
#95 = PERSON_AND_ORGANIZATION_ROLE ( 'creator' ) ;
#96 = CARTESIAN_POINT ( 'NONE',  ( 3.142333204958820020E-14, -1.301042606982605321E-15, 9.000000000000000000 ) ) ;
#97 = DIRECTION ( 'NONE',  ( -3.491481338843133355E-15, 1.224646799147352961E-16, -1.000000000000000000 ) ) ;
#98 = DIRECTION ( 'NONE',  ( -3.491481338843133355E-15, 1.224646799147352961E-16, -1.000000000000000000 ) ) ;
#99 = EDGE_LOOP ( 'NONE', ( #276 ) ) ;
#100 = AXIS2_PLACEMENT_3D ( 'NONE', #169, #97, #194 ) ;
#101 = DIRECTION ( 'NONE',  ( -3.491481338843133355E-15, 1.224646799147352961E-16, -1.000000000000000000 ) ) ;
#102 = DIRECTION ( 'NONE',  ( 4.275831445896957731E-31, 1.000000000000000000, 1.224646799147352961E-16 ) ) ;
#103 = CARTESIAN_POINT ( 'NONE',  ( 1.316288464743861212E-13, -4.616918432785520292E-15, 37.69999999999999574 ) ) ;
#104 = ADVANCED_FACE ( 'NONE', ( #148, #31 ), #278, .T. ) ;
#105 = CLOSED_SHELL ( 'NONE', ( #11, #104, #90, #198, #118, #192, #213, #173 ) ) ;
#106 = SECURITY_CLASSIFICATION ( '', '', #4 ) ;
#107 = ADVANCED_FACE ( 'NONE', ( #33, #131 ), #189, .T. ) ;
#108 = MECHANICAL_CONTEXT ( 'NONE', #207, 'mechanical' ) ;
#109 = LOCAL_TIME ( 15, 49, 37.00000000000000000, #32 ) ;
#110 = DATE_TIME_ROLE ( 'creation_date' ) ;
#111 = EDGE_LOOP ( 'NONE', ( #149 ) ) ;
#112 = AXIS2_PLACEMENT_3D ( 'NONE', #214, #145, #29 ) ;
#113 = EDGE_LOOP ( 'NONE', ( #77 ) ) ;
#114 = APPROVAL_ROLE ( '' ) ;
#115 = VERTEX_POINT ( 'NONE', #162 ) ;
#116 = APPLICATION_PROTOCOL_DEFINITION ( 'international standard', 'config_control_design', 1994, #207 ) ;
#117 = DIRECTION ( 'NONE',  ( -3.491481338843133355E-15, 1.224646799147352961E-16, -1.000000000000000000 ) ) ;
#118 = ADVANCED_FACE ( 'NONE', ( #12, #78 ), #248, .T. ) ;
#119 = DATE_AND_TIME ( #268, #144 ) ;
#120 = CIRCLE ( 'NONE', #288, 1.500000000000003331 ) ;
#121 = ORIENTED_EDGE ( 'NONE', *, *, #263, .F. ) ;
#122 =( GEOMETRIC_REPRESENTATION_CONTEXT ( 3 ) GLOBAL_UNCERTAINTY_ASSIGNED_CONTEXT ( ( #234 ) ) GLOBAL_UNIT_ASSIGNED_CONTEXT ( ( #10, #28, #239 ) ) REPRESENTATION_CONTEXT ( 'NONE', 'WORKASPACE' ) );
#123 = EDGE_CURVE ( 'NONE', #252, #252, #120, .T. ) ;
#124 = CARTESIAN_POINT ( 'NONE',  ( 1.745740669421566678E-14, -6.123233995736765296E-16, 5.000000000000000000 ) ) ;
#125 = PERSON_AND_ORGANIZATION_ROLE ( 'design_supplier' ) ;
#126 = DIRECTION ( 'NONE',  ( 3.491481338843133355E-15, -1.224646799147352961E-16, 1.000000000000000000 ) ) ;
#127 = DATE_AND_TIME ( #233, #67 ) ;
#128 = DIRECTION ( 'NONE',  ( -3.491481338843133355E-15, 1.224646799147352961E-16, -1.000000000000000000 ) ) ;
#129 = AXIS2_PLACEMENT_3D ( 'NONE', #70, #281, #54 ) ;
#130 = AXIS2_PLACEMENT_3D ( 'NONE', #8, #101, #260 ) ;
#131 = FACE_OUTER_BOUND ( 'NONE', #84, .T. ) ;
#132 = DATE_TIME_ROLE ( 'classification_date' ) ;
#133 = CARTESIAN_POINT ( 'NONE',  ( 1.745740669421566678E-14, 3.063259356086833818E-33, 5.000000000000000000 ) ) ;
#134 = AXIS2_PLACEMENT_3D ( 'NONE', #57, #36, #218 ) ;
#135 = AXIS2_PLACEMENT_3D ( 'NONE', #133, #298, #2 ) ;
#136 = ORIENTED_EDGE ( 'NONE', *, *, #58, .F. ) ;
#137 = CARTESIAN_POINT ( 'NONE',  ( 1.326762908760390423E-13, -4.653657836759941152E-15, 38.00000000000000000 ) ) ;
#138 = DIRECTION ( 'NONE',  ( -3.491481338843133355E-15, 1.224646799147352961E-16, -1.000000000000000000 ) ) ;
#139 = APPROVAL ( #171, 'UNSPECIFIED' ) ;
#140 = CARTESIAN_POINT ( 'NONE',  ( 3.142333204958820020E-14, 0.3699999999999987743, 9.000000000000000000 ) ) ;
#141 = CARTESIAN_POINT ( 'NONE',  ( 1.316288464743861212E-13, 1.499999999999998668, 37.69999999999999574 ) ) ;
#142 = CYLINDRICAL_SURFACE ( 'NONE', #201, 0.3699999999999996070 ) ;
#143 = EDGE_LOOP ( 'NONE', ( #49 ) ) ;
#144 = LOCAL_TIME ( 15, 49, 37.00000000000000000, #82 ) ;
#145 = DIRECTION ( 'NONE',  ( -3.491481338843133355E-15, 1.224646799147352961E-16, -1.000000000000000000 ) ) ;
#146 = EDGE_CURVE ( 'NONE', #88, #88, #154, .T. ) ;
#147 = ORIENTED_EDGE ( 'NONE', *, *, #246, .F. ) ;
#148 = FACE_OUTER_BOUND ( 'NONE', #111, .T. ) ;
#149 = ORIENTED_EDGE ( 'NONE', *, *, #81, .F. ) ;
#150 = EDGE_CURVE ( 'NONE', #86, #86, #195, .T. ) ;
#151 = DATE_AND_TIME ( #242, #274 ) ;
#152 = PERSON_AND_ORGANIZATION ( #73, #161 ) ;
#153 = APPROVAL ( #292, 'UNSPECIFIED' ) ;
#154 = CIRCLE ( 'NONE', #24, 0.4084999999999999742 ) ;
#155 = APPROVAL_PERSON_ORGANIZATION ( #174, #139, #34 ) ;
#156 = PRODUCT_DEFINITION_SHAPE ( 'NONE', 'NONE',  #159 ) ;
#157 = CARTESIAN_POINT ( 'NONE',  ( 1.745740669421566678E-14, -6.123233995736765296E-16, 5.000000000000000000 ) ) ;
#158 = CARTESIAN_POINT ( 'NONE',  ( 1.745740669421566678E-14, 0.4084999999999993636, 5.000000000000000000 ) ) ;
#159 = PRODUCT_DEFINITION ( 'UNKNOWN', '', #224, #280 ) ;
#160 = DIRECTION ( 'NONE',  ( 3.491481338843133355E-15, -1.224646799147352961E-16, 1.000000000000000000 ) ) ;
#161 = ORGANIZATION ( 'UNSPECIFIED', 'UNSPECIFIED', '' ) ;
#162 = CARTESIAN_POINT ( 'NONE',  ( 3.263591079328456407E-14, 0.4003844939755808463, 9.347296355333847728 ) ) ;
#163 = EDGE_LOOP ( 'NONE', ( #229 ) ) ;
#164 = APPROVAL_DATE_TIME ( #119, #238 ) ;
#165 = CARTESIAN_POINT ( 'NONE',  ( 0.0000000000000000000, 0.0000000000000000000, 0.0000000000000000000 ) ) ;
#166 = FACE_OUTER_BOUND ( 'NONE', #51, .T. ) ;
#167 = EDGE_LOOP ( 'NONE', ( #291 ) ) ;
#168 = DIRECTION ( 'NONE',  ( -3.491481338843133355E-15, 1.224646799147352961E-16, -1.000000000000000000 ) ) ;
#169 = CARTESIAN_POINT ( 'NONE',  ( 1.769023248250903903E-14, -6.204898289118584630E-16, 5.066683956091403651 ) ) ;
#170 = MANIFOLD_SOLID_BREP ( 'Corps-Déplacer/Copier1[2]', #264 ) ;
#171 = APPROVAL_STATUS ( 'not_yet_approved' ) ;
#172 = ADVANCED_BREP_SHAPE_REPRESENTATION ( '964624', ( #272, #170, #134 ), #122 ) ;
#173 = ADVANCED_FACE ( 'NONE', ( #71 ), #5, .F. ) ;
#174 = PERSON_AND_ORGANIZATION ( #73, #161 ) ;
#175 = SHAPE_DEFINITION_REPRESENTATION ( #156, #172 ) ;
#176 = APPROVAL_DATE_TIME ( #151, #153 ) ;
#177 = PRODUCT_RELATED_PRODUCT_CATEGORY ( 'detail', '', ( #178 ) ) ;
#178 = PRODUCT ( '964624', '964624', '', ( #108 ) ) ;
#179 = AXIS2_PLACEMENT_3D ( 'NONE', #261, #79, #216 ) ;
#180 = CIRCLE ( 'NONE', #301, 0.3699999999999993294 ) ;
#181 = DIRECTION ( 'NONE',  ( -4.275831445896957731E-31, -1.000000000000000000, -1.224646799147352961E-16 ) ) ;
#182 = ADVANCED_FACE ( 'NONE', ( #257 ), #56, .T. ) ;
#183 = DATE_AND_TIME ( #225, #109 ) ;
#184 = DIRECTION ( 'NONE',  ( -3.491481338843133355E-15, 1.224646799147352961E-16, -1.000000000000000000 ) ) ;
#185 = CARTESIAN_POINT ( 'NONE',  ( 5.440958946549379140E-14, 1.499999999999995559, 15.58352578322009485 ) ) ;
#186 = CIRCLE ( 'NONE', #196, 0.4003844939755820120 ) ;
#187 = EDGE_LOOP ( 'NONE', ( #256 ) ) ;
#188 = EDGE_LOOP ( 'NONE', ( #19 ) ) ;
#189 = CYLINDRICAL_SURFACE ( 'NONE', #44, 0.4084999999999996967 ) ;
#190 = PERSON_AND_ORGANIZATION ( #73, #161 ) ;
#191 = EDGE_LOOP ( 'NONE', ( #47 ) ) ;
#192 = ADVANCED_FACE ( 'NONE', ( #89, #253 ), #302, .T. ) ;
#193 = EDGE_LOOP ( 'NONE', ( #254 ) ) ;
#194 = DIRECTION ( 'NONE',  ( 0.0000000000000000000, 1.000000000000000000, 0.0000000000000000000 ) ) ;
#195 = CIRCLE ( 'NONE', #112, 0.3507649730810375455 ) ;
#196 = AXIS2_PLACEMENT_3D ( 'NONE', #245, #184, #205 ) ;
#197 = APPROVAL_PERSON_ORGANIZATION ( #221, #238, #17 ) ;
#198 = ADVANCED_FACE ( 'NONE', ( #93, #255 ), #236, .F. ) ;
#199 = CC_DESIGN_PERSON_AND_ORGANIZATION_ASSIGNMENT ( #152, #283, ( #178 ) ) ;
#200 = APPLICATION_CONTEXT ( 'configuration controlled 3d designs of mechanical parts and assemblies' ) ;
#201 = AXIS2_PLACEMENT_3D ( 'NONE', #23, #94, #9 ) ;
#202 = FACE_OUTER_BOUND ( 'NONE', #46, .T. ) ;
#203 = ORIENTED_EDGE ( 'NONE', *, *, #208, .T. ) ;
#204 = DIRECTION ( 'NONE',  ( 0.0000000000000000000, 1.000000000000000000, 0.0000000000000000000 ) ) ;
#205 = DIRECTION ( 'NONE',  ( 0.0000000000000000000, 1.000000000000000000, 0.0000000000000000000 ) ) ;
#206 = CIRCLE ( 'NONE', #80, 0.4084999999999999742 ) ;
#207 = APPLICATION_CONTEXT ( 'configuration controlled 3d designs of mechanical parts and assemblies' ) ;
#208 = EDGE_CURVE ( 'NONE', #115, #115, #186, .T. ) ;
#209 = DIRECTION ( 'NONE',  ( 3.491481338843133355E-15, -1.224646799147352961E-16, 1.000000000000000000 ) ) ;
#210 = DIRECTION ( 'NONE',  ( 0.0000000000000000000, 1.000000000000000000, 0.0000000000000000000 ) ) ;
#211 = DIRECTION ( 'NONE',  ( 4.275831445896957731E-31, 1.000000000000000000, 1.224646799147353207E-16 ) ) ;
#212 = DIRECTION ( 'NONE',  ( 0.0000000000000000000, -1.000000000000000000, 0.0000000000000000000 ) ) ;
#213 = ADVANCED_FACE ( 'NONE', ( #297, #41 ), #75, .T. ) ;
#214 = CARTESIAN_POINT ( 'NONE',  ( -2.446179815210681342E-31, 8.580043798341539914E-33, -7.006137446580762529E-17 ) ) ;
#215 = DIRECTION ( 'NONE',  ( 0.0000000000000000000, 1.000000000000000000, 0.0000000000000000000 ) ) ;
#216 = DIRECTION ( 'NONE',  ( 4.714638786749666478E-31, 1.000000000000000000, 1.327052842699517832E-16 ) ) ;
#217 = CC_DESIGN_APPROVAL ( #153, ( #106 ) ) ;
#218 = DIRECTION ( 'NONE',  ( 1.000000000000000000, 0.0000000000000000000, 0.0000000000000000000 ) ) ;
#219 = CIRCLE ( 'NONE', #14, 1.200000000000003286 ) ;
#220 = ORIENTED_EDGE ( 'NONE', *, *, #146, .T. ) ;
#221 = PERSON_AND_ORGANIZATION ( #73, #161 ) ;
#222 = DIRECTION ( 'NONE',  ( 0.0000000000000000000, 1.000000000000000000, 0.0000000000000000000 ) ) ;
#223 = DIRECTION ( 'NONE',  ( 0.0000000000000000000, 1.000000000000000000, 0.0000000000000000000 ) ) ;
#224 = PRODUCT_DEFINITION_FORMATION_WITH_SPECIFIED_SOURCE ( 'ANY', '', #178, .NOT_KNOWN. ) ;
#225 = CALENDAR_DATE ( 2021, 29, 11 ) ;
#226 = EDGE_LOOP ( 'NONE', ( #275 ) ) ;
#227 = VERTEX_POINT ( 'NONE', #22 ) ;
#228 = CC_DESIGN_PERSON_AND_ORGANIZATION_ASSIGNMENT ( #1, #95, ( #224 ) ) ;
#229 = ORIENTED_EDGE ( 'NONE', *, *, #48, .T. ) ;
#230 = CONICAL_SURFACE ( 'NONE', #129, 0.4084999999999993636, 0.5235987755982929315 ) ;
#231 = DIRECTION ( 'NONE',  ( -4.275831445896957731E-31, -1.000000000000000000, -1.224646799147352961E-16 ) ) ;
#232 = ORIENTED_EDGE ( 'NONE', *, *, #150, .F. ) ;
#233 = CALENDAR_DATE ( 2021, 29, 11 ) ;
#234 = UNCERTAINTY_MEASURE_WITH_UNIT (LENGTH_MEASURE( 1.000000000000000082E-05 ), #10, 'distance_accuracy_value', 'NONE');
#235 = CARTESIAN_POINT ( 'NONE',  ( 1.745740669421566678E-14, 3.063259356086833818E-33, 5.000000000000000000 ) ) ;
#236 = TOROIDAL_SURFACE ( 'NONE', #25, 2.370000000000000107, 2.000000000000000000 ) ;
#237 = DIRECTION ( 'NONE',  ( -3.491481338843133355E-15, 1.224646799147352961E-16, -1.000000000000000000 ) ) ;
#238 = APPROVAL ( #39, 'UNSPECIFIED' ) ;
#239 =( NAMED_UNIT ( * ) SI_UNIT ( $, .STERADIAN. ) SOLID_ANGLE_UNIT ( ) );
#240 = APPLICATION_PROTOCOL_DEFINITION ( 'international standard', 'config_control_design', 1994, #200 ) ;
#241 = AXIS2_PLACEMENT_3D ( 'NONE', #300, #92, #249 ) ;
#242 = CALENDAR_DATE ( 2021, 29, 11 ) ;
#243 = DIRECTION ( 'NONE',  ( -3.491481338843133355E-15, 1.224646799147352961E-16, -1.000000000000000000 ) ) ;
#244 = CALENDAR_DATE ( 2021, 29, 11 ) ;
#245 = CARTESIAN_POINT ( 'NONE',  ( 3.263591079328456407E-14, -1.144713656224131427E-15, 9.347296355333847728 ) ) ;
#246 = EDGE_CURVE ( 'NONE', #227, #227, #219, .T. ) ;
#247 = CARTESIAN_POINT ( 'NONE',  ( -9.463679131915808972E-32, 0.3507649730810375455, -2.710505431213761701E-17 ) ) ;
#248 = CONICAL_SURFACE ( 'NONE', #286, 1.499999999999997335, 0.1745329251994260089 ) ;
#249 = DIRECTION ( 'NONE',  ( 0.0000000000000000000, 1.000000000000000000, 0.0000000000000000000 ) ) ;
#250 = DIRECTION ( 'NONE',  ( -3.491481338843133355E-15, 1.224646799147352961E-16, -1.000000000000000000 ) ) ;
#251 = ORIENTED_EDGE ( 'NONE', *, *, #246, .T. ) ;
#252 = VERTEX_POINT ( 'NONE', #141 ) ;
#253 = FACE_OUTER_BOUND ( 'NONE', #188, .T. ) ;
#254 = ORIENTED_EDGE ( 'NONE', *, *, #262, .F. ) ;
#255 = FACE_OUTER_BOUND ( 'NONE', #87, .T. ) ;
#256 = ORIENTED_EDGE ( 'NONE', *, *, #58, .T. ) ;
#257 = FACE_OUTER_BOUND ( 'NONE', #167, .T. ) ;
#258 = ORIENTED_EDGE ( 'NONE', *, *, #81, .T. ) ;
#259 = PLANE ( 'NONE',  #7 ) ;
#260 = DIRECTION ( 'NONE',  ( 4.275831445896957731E-31, 1.000000000000000000, 1.224646799147352961E-16 ) ) ;
#261 = CARTESIAN_POINT ( 'NONE',  ( 3.491481338843131876E-16, -1.224646799147352344E-17, 0.09999999999999995004 ) ) ;
#262 = EDGE_CURVE ( 'NONE', #271, #271, #180, .T. ) ;
#263 = EDGE_CURVE ( 'NONE', #45, #45, #50, .T. ) ;
#264 = CLOSED_SHELL ( 'NONE', ( #290, #37, #107, #182 ) ) ;
#265 = PERSON_AND_ORGANIZATION_ROLE ( 'creator' ) ;
#266 = CARTESIAN_POINT ( 'NONE',  ( -1.223089907605340671E-31, 4.290021899170769957E-33, -3.503068723290381265E-17 ) ) ;
#267 = AXIS2_PLACEMENT_3D ( 'NONE', #165, #98, #211 ) ;
#268 = CALENDAR_DATE ( 2021, 29, 11 ) ;
#269 = CARTESIAN_POINT ( 'NONE',  ( 3.491481338843133848E-16, 0.4084999999999993636, 0.1000000000000000056 ) ) ;
#270 = PERSON_AND_ORGANIZATION ( #73, #161 ) ;
#271 = VERTEX_POINT ( 'NONE', #65 ) ;
#272 = MANIFOLD_SOLID_BREP ( 'Corps-Déplacer/Copier1[1]', #105 ) ;
#273 = VERTEX_POINT ( 'NONE', #269 ) ;
#274 = LOCAL_TIME ( 15, 49, 37.00000000000000000, #85 ) ;
#275 = ORIENTED_EDGE ( 'NONE', *, *, #262, .T. ) ;
#276 = ORIENTED_EDGE ( 'NONE', *, *, #123, .F. ) ;
#277 = FACE_OUTER_BOUND ( 'NONE', #187, .T. ) ;
#278 = CONICAL_SURFACE ( 'NONE', #100, 0.3699999999999993294, 0.5235987755982935976 ) ;
#279 = AXIS2_PLACEMENT_3D ( 'NONE', #266, #160, #181 ) ;
#280 = DESIGN_CONTEXT ( 'detailed design', #200, 'design' ) ;
#281 = DIRECTION ( 'NONE',  ( 3.491481338843133355E-15, -1.224646799147352961E-16, 1.000000000000000000 ) ) ;
#282 = CARTESIAN_POINT ( 'NONE',  ( 0.0000000000000000000, 0.0000000000000000000, 0.0000000000000000000 ) ) ;
#283 = PERSON_AND_ORGANIZATION_ROLE ( 'design_owner' ) ;
#284 = CC_DESIGN_PERSON_AND_ORGANIZATION_ASSIGNMENT ( #270, #265, ( #159 ) ) ;
#285 = DIRECTION ( 'NONE',  ( -3.491481338843133355E-15, 1.224646799147352961E-16, -1.000000000000000000 ) ) ;
#286 = AXIS2_PLACEMENT_3D ( 'NONE', #30, #126, #212 ) ;
#287 = CC_DESIGN_DATE_AND_TIME_ASSIGNMENT ( #16, #110, ( #159 ) ) ;
#288 = AXIS2_PLACEMENT_3D ( 'NONE', #103, #285, #43 ) ;
#289 = COORDINATED_UNIVERSAL_TIME_OFFSET ( 1, 0, .AHEAD. ) ;
#290 = ADVANCED_FACE ( 'NONE', ( #202 ), #83, .F. ) ;
#291 = ORIENTED_EDGE ( 'NONE', *, *, #146, .F. ) ;
#292 = APPROVAL_STATUS ( 'not_yet_approved' ) ;
#293 = DIRECTION ( 'NONE',  ( -3.491481338843133355E-15, 1.224646799147352961E-16, -1.000000000000000000 ) ) ;
#294 = APPROVAL_PERSON_ORGANIZATION ( #61, #153, #114 ) ;
#295 = EDGE_LOOP ( 'NONE', ( #232 ) ) ;
#296 = DIRECTION ( 'NONE',  ( 0.0000000000000000000, 1.000000000000000000, 0.0000000000000000000 ) ) ;
#297 = FACE_OUTER_BOUND ( 'NONE', #99, .T. ) ;
#298 = DIRECTION ( 'NONE',  ( 3.491481338843133355E-15, -1.224646799147352961E-16, 1.000000000000000000 ) ) ;
#299 = EDGE_LOOP ( 'NONE', ( #147 ) ) ;
#300 = CARTESIAN_POINT ( 'NONE',  ( 3.142333204958820020E-14, -1.102182119232617517E-15, 9.000000000000000000 ) ) ;
#301 = AXIS2_PLACEMENT_3D ( 'NONE', #18, #117, #296 ) ;
#302 = CYLINDRICAL_SURFACE ( 'NONE', #267, 1.500000000000000444 ) ;
#303 = FACE_OUTER_BOUND ( 'NONE', #191, .T. ) ;
ENDSEC;
END-ISO-10303-21;
