ISO-10303-21;
HEADER;
FILE_DESCRIPTION (( 'STEP AP203' ),
    '1' );
FILE_NAME ('964623.step',
    '2021-11-26T14:47:31',
    ( '' ),
    ( '' ),
    'SwSTEP 2.0',
    'SolidWorks 2019',
    '' );
FILE_SCHEMA (( 'CONFIG_CONTROL_DESIGN' ));
ENDSEC;

DATA;
#1 = DIRECTION ( 'NONE',  ( -3.491481338843133355E-15, 1.224646799147352961E-16, -1.000000000000000000 ) ) ;
#2 = AXIS2_PLACEMENT_3D ( 'NONE', #132, #212, #149 ) ;
#3 = PLANE ( 'NONE',  #32 ) ;
#4 = ADVANCED_FACE ( 'NONE', ( #55, #22 ), #116, .T. ) ;
#5 = DIRECTION ( 'NONE',  ( -4.275831445896957731E-31, -1.000000000000000000, -1.224646799147352961E-16 ) ) ;
#6 = APPLICATION_PROTOCOL_DEFINITION ( 'international standard', 'config_control_design', 1994, #143 ) ;
#7 = EDGE_LOOP ( 'NONE', ( #276 ) ) ;
#8 = AXIS2_PLACEMENT_3D ( 'NONE', #70, #128, #219 ) ;
#9 = DIRECTION ( 'NONE',  ( 3.491481338843133355E-15, -1.224646799147352961E-16, 1.000000000000000000 ) ) ;
#10 = VERTEX_POINT ( 'NONE', #12 ) ;
#11 = LOCAL_TIME ( 15, 47, 31.00000000000000000, #206 ) ;
#12 = CARTESIAN_POINT ( 'NONE',  ( 1.745740669421566678E-14, 0.2084999999999994913, 5.000000000000000000 ) ) ;
#13 = AXIS2_PLACEMENT_3D ( 'NONE', #259, #1, #153 ) ;
#14 = FACE_BOUND ( 'NONE', #60, .T. ) ;
#15 = COORDINATED_UNIVERSAL_TIME_OFFSET ( 1, 0, .AHEAD. ) ;
#16 = DATE_AND_TIME ( #52, #267 ) ;
#17 = CALENDAR_DATE ( 2021, 26, 11 ) ;
#18 = EDGE_LOOP ( 'NONE', ( #24 ) ) ;
#19 = EDGE_LOOP ( 'NONE', ( #208 ) ) ;
#20 = PLANE ( 'NONE',  #235 ) ;
#21 = CARTESIAN_POINT ( 'NONE',  ( 0.0000000000000000000, 0.0000000000000000000, 0.0000000000000000000 ) ) ;
#22 = FACE_OUTER_BOUND ( 'NONE', #7, .T. ) ;
#23 = FACE_OUTER_BOUND ( 'NONE', #18, .T. ) ;
#24 = ORIENTED_EDGE ( 'NONE', *, *, #129, .F. ) ;
#25 = PLANE ( 'NONE',  #53 ) ;
#26 = DIRECTION ( 'NONE',  ( -3.491481338843133355E-15, 1.224646799147352961E-16, -1.000000000000000000 ) ) ;
#27 = ADVANCED_FACE ( 'NONE', ( #258, #103 ), #261, .T. ) ;
#28 = CARTESIAN_POINT ( 'NONE',  ( 1.047444401652940007E-14, -3.673940397442059375E-16, 3.000000000000000000 ) ) ;
#29 = EDGE_LOOP ( 'NONE', ( #165 ) ) ;
#30 =( NAMED_UNIT ( * ) SI_UNIT ( $, .STERADIAN. ) SOLID_ANGLE_UNIT ( ) );
#31 = CARTESIAN_POINT ( 'NONE',  ( 3.491481338843132862E-16, -1.224646799147352653E-17, 0.09999999999999997780 ) ) ;
#32 = AXIS2_PLACEMENT_3D ( 'NONE', #196, #194, #209 ) ;
#33 = SECURITY_CLASSIFICATION_LEVEL ( 'unclassified' ) ;
#34 = CALENDAR_DATE ( 2021, 26, 11 ) ;
#35 = AXIS2_PLACEMENT_3D ( 'NONE', #283, #81, #107 ) ;
#36 = APPROVAL_PERSON_ORGANIZATION ( #249, #195, #227 ) ;
#37 = DIRECTION ( 'NONE',  ( -3.491481338843133355E-15, 1.224646799147352961E-16, -1.000000000000000000 ) ) ;
#38 = APPROVAL_PERSON_ORGANIZATION ( #115, #68, #254 ) ;
#39 = FACE_OUTER_BOUND ( 'NONE', #19, .T. ) ;
#40 = FACE_BOUND ( 'NONE', #154, .T. ) ;
#41 = AXIS2_PLACEMENT_3D ( 'NONE', #244, #199, #200 ) ;
#42 = DIRECTION ( 'NONE',  ( -3.491481338843133355E-15, 1.224646799147352961E-16, -1.000000000000000000 ) ) ;
#43 = DIRECTION ( 'NONE',  ( -4.618537036899860261E-31, -1.000000000000000000, -1.300002604898690338E-16 ) ) ;
#44 = DIRECTION ( 'NONE',  ( 0.0000000000000000000, 1.000000000000000000, 0.0000000000000000000 ) ) ;
#45 = DIRECTION ( 'NONE',  ( 4.618537036899860261E-31, 1.000000000000000000, 1.300002604898690338E-16 ) ) ;
#46 = EDGE_CURVE ( 'NONE', #89, #89, #92, .T. ) ;
#47 = DATE_AND_TIME ( #97, #178 ) ;
#48 = CIRCLE ( 'NONE', #84, 0.2084999999999997966 ) ;
#49 = PERSON_AND_ORGANIZATION_ROLE ( 'creator' ) ;
#50 = PRODUCT_DEFINITION_FORMATION_WITH_SPECIFIED_SOURCE ( 'ANY', '', #211, .NOT_KNOWN. ) ;
#51 = CC_DESIGN_PERSON_AND_ORGANIZATION_ASSIGNMENT ( #94, #141, ( #80 ) ) ;
#52 = CALENDAR_DATE ( 2021, 26, 11 ) ;
#53 = AXIS2_PLACEMENT_3D ( 'NONE', #238, #237, #191 ) ;
#54 = PERSON_AND_ORGANIZATION ( #163, #161 ) ;
#55 = FACE_BOUND ( 'NONE', #144, .T. ) ;
#56 = CARTESIAN_POINT ( 'NONE',  ( 1.316288464743861212E-13, -4.616918432785520292E-15, 37.69999999999999574 ) ) ;
#57 = DESIGN_CONTEXT ( 'detailed design', #207, 'design' ) ;
#58 = DIRECTION ( 'NONE',  ( 0.0000000000000000000, 1.000000000000000000, 0.0000000000000000000 ) ) ;
#59 = FACE_OUTER_BOUND ( 'NONE', #117, .T. ) ;
#60 = EDGE_LOOP ( 'NONE', ( #119 ) ) ;
#61 = FACE_OUTER_BOUND ( 'NONE', #251, .T. ) ;
#62 = DIRECTION ( 'NONE',  ( -3.491481338843133355E-15, 1.224646799147352961E-16, -1.000000000000000000 ) ) ;
#63 = CIRCLE ( 'NONE', #77, 1.499999999999996891 ) ;
#64 = PRODUCT_RELATED_PRODUCT_CATEGORY ( 'detail', '', ( #211 ) ) ;
#65 = LOCAL_TIME ( 15, 47, 31.00000000000000000, #15 ) ;
#66 = CLOSED_SHELL ( 'NONE', ( #173, #270, #27, #176 ) ) ;
#67 = CARTESIAN_POINT ( 'NONE',  ( 4.364155381456464604E-14, 1.499999999999995559, 12.49943779708839209 ) ) ;
#68 = APPROVAL ( #76, 'UNSPECIFIED' ) ;
#69 = MANIFOLD_SOLID_BREP ( 'Corps-Déplacer/Copier1[1]', #180 ) ;
#70 = CARTESIAN_POINT ( 'NONE',  ( 0.0000000000000000000, 0.0000000000000000000, 0.0000000000000000000 ) ) ;
#71 = APPROVAL_DATE_TIME ( #248, #195 ) ;
#72 = ADVANCED_FACE ( 'NONE', ( #61, #123 ), #263, .T. ) ;
#73 = TOROIDAL_SURFACE ( 'NONE', #140, 2.208499999999999908, 2.000000000000000444 ) ;
#74 = MANIFOLD_SOLID_BREP ( 'Corps-Déplacer/Copier1[2]', #66 ) ;
#75 = DATE_TIME_ROLE ( 'classification_date' ) ;
#76 = APPROVAL_STATUS ( 'not_yet_approved' ) ;
#77 = AXIS2_PLACEMENT_3D ( 'NONE', #108, #42, #157 ) ;
#78 = ORIENTED_EDGE ( 'NONE', *, *, #275, .F. ) ;
#79 = APPROVAL_DATE_TIME ( #16, #68 ) ;
#80 = PRODUCT_DEFINITION ( 'UNKNOWN', '', #50, #57 ) ;
#81 = DIRECTION ( 'NONE',  ( -3.491481338843133355E-15, 1.224646799147352961E-16, -1.000000000000000000 ) ) ;
#82 = CARTESIAN_POINT ( 'NONE',  ( 1.047444401652940007E-14, -3.673940397442059375E-16, 3.000000000000000000 ) ) ;
#83 = EDGE_CURVE ( 'NONE', #221, #221, #48, .T. ) ;
#84 = AXIS2_PLACEMENT_3D ( 'NONE', #82, #87, #58 ) ;
#85 = DIRECTION ( 'NONE',  ( 4.275831445896957731E-31, 1.000000000000000000, 1.224646799147352961E-16 ) ) ;
#86 = FACE_OUTER_BOUND ( 'NONE', #225, .T. ) ;
#87 = DIRECTION ( 'NONE',  ( -3.491481338843133355E-15, 1.224646799147352961E-16, -1.000000000000000000 ) ) ;
#88 =( GEOMETRIC_REPRESENTATION_CONTEXT ( 3 ) GLOBAL_UNCERTAINTY_ASSIGNED_CONTEXT ( ( #281 ) ) GLOBAL_UNIT_ASSIGNED_CONTEXT ( ( #133, #158, #30 ) ) REPRESENTATION_CONTEXT ( 'NONE', 'WORKASPACE' ) );
#89 = VERTEX_POINT ( 'NONE', #160 ) ;
#90 = CC_DESIGN_APPROVAL ( #68, ( #50 ) ) ;
#91 = VERTEX_POINT ( 'NONE', #177 ) ;
#92 = CIRCLE ( 'NONE', #231, 1.500000000000003331 ) ;
#93 = CARTESIAN_POINT ( 'NONE',  ( 1.047444401652940007E-14, 0.2084999999999994358, 3.000000000000000000 ) ) ;
#94 = PERSON_AND_ORGANIZATION ( #163, #161 ) ;
#95 = CC_DESIGN_PERSON_AND_ORGANIZATION_ASSIGNMENT ( #233, #274, ( #50 ) ) ;
#96 = EDGE_LOOP ( 'NONE', ( #229 ) ) ;
#97 = CALENDAR_DATE ( 2021, 26, 11 ) ;
#98 = PERSON_AND_ORGANIZATION ( #163, #161 ) ;
#99 = ADVANCED_FACE ( 'NONE', ( #59, #40 ), #204, .T. ) ;
#100 = SHAPE_DEFINITION_REPRESENTATION ( #239, #148 ) ;
#101 = CIRCLE ( 'NONE', #264, 0.2084999999999993803 ) ;
#102 = DIRECTION ( 'NONE',  ( -3.491481338843133355E-15, 1.224646799147352961E-16, -1.000000000000000000 ) ) ;
#103 = FACE_OUTER_BOUND ( 'NONE', #260, .T. ) ;
#104 = CC_DESIGN_APPROVAL ( #195, ( #80 ) ) ;
#105 = DIRECTION ( 'NONE',  ( -3.491481338843133355E-15, 1.224646799147352961E-16, -1.000000000000000000 ) ) ;
#106 = CIRCLE ( 'NONE', #268, 0.2085000000000001019 ) ;
#107 = DIRECTION ( 'NONE',  ( 0.0000000000000000000, 1.000000000000000000, 0.0000000000000000000 ) ) ;
#108 = CARTESIAN_POINT ( 'NONE',  ( 4.364155381456464604E-14, -1.530739648934574090E-15, 12.49943779708839209 ) ) ;
#109 = FACE_OUTER_BOUND ( 'NONE', #29, .T. ) ;
#110 = CONICAL_SURFACE ( 'NONE', #224, 0.2084999999999993803, 0.5235987755982927094 ) ;
#111 = CARTESIAN_POINT ( 'NONE',  ( -9.463679131915805687E-32, 0.1507649730810376176, -2.710505431213760777E-17 ) ) ;
#112 = CARTESIAN_POINT ( 'NONE',  ( 1.866998543791203065E-14, 0.2388844939755802588, 5.347296355333847728 ) ) ;
#113 = CIRCLE ( 'NONE', #35, 1.200000000000003286 ) ;
#114 = APPROVAL_PERSON_ORGANIZATION ( #54, #166, #182 ) ;
#115 = PERSON_AND_ORGANIZATION ( #163, #161 ) ;
#116 = CONICAL_SURFACE ( 'NONE', #2, 1.499999999999996891, 0.1745329251994261477 ) ;
#117 = EDGE_LOOP ( 'NONE', ( #277 ) ) ;
#118 = EDGE_CURVE ( 'NONE', #179, #179, #255, .T. ) ;
#119 = ORIENTED_EDGE ( 'NONE', *, *, #169, .F. ) ;
#120 = DATE_AND_TIME ( #34, #215 ) ;
#121 = DIRECTION ( 'NONE',  ( 0.0000000000000000000, 1.000000000000000000, 0.0000000000000000000 ) ) ;
#122 = ADVANCED_FACE ( 'NONE', ( #171 ), #25, .F. ) ;
#123 = FACE_OUTER_BOUND ( 'NONE', #150, .T. ) ;
#124 = DIRECTION ( 'NONE',  ( 4.275831445896956855E-31, 1.000000000000000000, 1.224646799147352714E-16 ) ) ;
#125 = DIRECTION ( 'NONE',  ( -3.491481338843133355E-15, 1.224646799147352961E-16, -1.000000000000000000 ) ) ;
#126 = AXIS2_PLACEMENT_3D ( 'NONE', #21, #257, #85 ) ;
#127 = CARTESIAN_POINT ( 'NONE',  ( 1.745740669421566678E-14, -6.123233995736765296E-16, 5.000000000000000000 ) ) ;
#128 = DIRECTION ( 'NONE',  ( 0.0000000000000000000, 0.0000000000000000000, 1.000000000000000000 ) ) ;
#129 = EDGE_CURVE ( 'NONE', #10, #10, #106, .T. ) ;
#130 = CARTESIAN_POINT ( 'NONE',  ( 1.047444401652940007E-14, 0.2084999999999994358, 3.000000000000000000 ) ) ;
#131 = CARTESIAN_POINT ( 'NONE',  ( 3.491481338843132862E-16, -1.224646799147352653E-17, 0.09999999999999997780 ) ) ;
#132 = CARTESIAN_POINT ( 'NONE',  ( 4.364155381456464604E-14, -1.530739648934574090E-15, 12.49943779708839209 ) ) ;
#133 =( LENGTH_UNIT ( ) NAMED_UNIT ( * ) SI_UNIT ( .MILLI., .METRE. ) );
#134 = AXIS2_PLACEMENT_3D ( 'NONE', #234, #62, #156 ) ;
#135 = ORIENTED_EDGE ( 'NONE', *, *, #236, .T. ) ;
#136 = ORIENTED_EDGE ( 'NONE', *, *, #83, .F. ) ;
#137 = DATE_TIME_ROLE ( 'creation_date' ) ;
#138 = EDGE_LOOP ( 'NONE', ( #135 ) ) ;
#139 = PERSON_AND_ORGANIZATION_ROLE ( 'classification_officer' ) ;
#140 = AXIS2_PLACEMENT_3D ( 'NONE', #216, #105, #192 ) ;
#141 = PERSON_AND_ORGANIZATION_ROLE ( 'creator' ) ;
#142 = CC_DESIGN_DATE_AND_TIME_ASSIGNMENT ( #47, #75, ( #282 ) ) ;
#143 = APPLICATION_CONTEXT ( 'configuration controlled 3d designs of mechanical parts and assemblies' ) ;
#144 = EDGE_LOOP ( 'NONE', ( #186 ) ) ;
#145 = ADVANCED_FACE ( 'NONE', ( #23, #190 ), #73, .F. ) ;
#146 = DIRECTION ( 'NONE',  ( 4.275831445896957731E-31, 1.000000000000000000, 1.224646799147352961E-16 ) ) ;
#147 = DIRECTION ( 'NONE',  ( 0.0000000000000000000, 1.000000000000000000, 0.0000000000000000000 ) ) ;
#148 = ADVANCED_BREP_SHAPE_REPRESENTATION ( '964623', ( #69, #74, #8 ), #88 ) ;
#149 = DIRECTION ( 'NONE',  ( 0.0000000000000000000, -1.000000000000000000, 0.0000000000000000000 ) ) ;
#150 = EDGE_LOOP ( 'NONE', ( #256 ) ) ;
#151 = CC_DESIGN_SECURITY_CLASSIFICATION ( #282, ( #50 ) ) ;
#152 = EDGE_CURVE ( 'NONE', #91, #91, #113, .T. ) ;
#153 = DIRECTION ( 'NONE',  ( 4.275831445896956855E-31, 1.000000000000000000, 1.224646799147352714E-16 ) ) ;
#154 = EDGE_LOOP ( 'NONE', ( #168 ) ) ;
#155 = CIRCLE ( 'NONE', #13, 0.1507649730810376176 ) ;
#156 = DIRECTION ( 'NONE',  ( 0.0000000000000000000, 1.000000000000000000, 0.0000000000000000000 ) ) ;
#157 = DIRECTION ( 'NONE',  ( 0.0000000000000000000, 1.000000000000000000, 0.0000000000000000000 ) ) ;
#158 =( NAMED_UNIT ( * ) PLANE_ANGLE_UNIT ( ) SI_UNIT ( $, .RADIAN. ) );
#159 = DIRECTION ( 'NONE',  ( -3.491481338843133355E-15, 1.224646799147352961E-16, -1.000000000000000000 ) ) ;
#160 = CARTESIAN_POINT ( 'NONE',  ( 1.316288464743861212E-13, 1.499999999999998668, 37.69999999999999574 ) ) ;
#161 = ORGANIZATION ( 'UNSPECIFIED', 'UNSPECIFIED', '' ) ;
#162 = PERSON_AND_ORGANIZATION_ROLE ( 'design_owner' ) ;
#163 = PERSON ( 'UNSPECIFIED', 'UNSPECIFIED', 'UNSPECIFIED', ('UNSPECIFIED'), ('UNSPECIFIED'), ('UNSPECIFIED') ) ;
#164 = ORIENTED_EDGE ( 'NONE', *, *, #118, .T. ) ;
#165 = ORIENTED_EDGE ( 'NONE', *, *, #275, .T. ) ;
#166 = APPROVAL ( #187, 'UNSPECIFIED' ) ;
#167 = DATE_AND_TIME ( #17, #11 ) ;
#168 = ORIENTED_EDGE ( 'NONE', *, *, #152, .T. ) ;
#169 = EDGE_CURVE ( 'NONE', #269, #269, #155, .T. ) ;
#170 = CARTESIAN_POINT ( 'NONE',  ( 1.326762908760390423E-13, 8.998558695971099120E-33, 38.00000000000000000 ) ) ;
#171 = FACE_OUTER_BOUND ( 'NONE', #138, .T. ) ;
#172 = DIRECTION ( 'NONE',  ( 0.0000000000000000000, 1.000000000000000000, 0.0000000000000000000 ) ) ;
#173 = ADVANCED_FACE ( 'NONE', ( #39 ), #3, .F. ) ;
#174 = CARTESIAN_POINT ( 'NONE',  ( 1.047444401652940007E-14, 1.563499573424978948E-33, 3.000000000000000000 ) ) ;
#175 = FACE_OUTER_BOUND ( 'NONE', #96, .T. ) ;
#176 = ADVANCED_FACE ( 'NONE', ( #86 ), #280, .T. ) ;
#177 = CARTESIAN_POINT ( 'NONE',  ( 1.326762908760390423E-13, 1.199999999999998845, 38.00000000000000000 ) ) ;
#178 = LOCAL_TIME ( 15, 47, 31.00000000000000000, #271 ) ;
#179 = VERTEX_POINT ( 'NONE', #112 ) ;
#180 = CLOSED_SHELL ( 'NONE', ( #122, #72, #145, #4, #222, #99, #183 ) ) ;
#181 = VERTEX_POINT ( 'NONE', #130 ) ;
#182 = APPROVAL_ROLE ( '' ) ;
#183 = ADVANCED_FACE ( 'NONE', ( #175 ), #20, .F. ) ;
#184 = EDGE_LOOP ( 'NONE', ( #188 ) ) ;
#185 = CALENDAR_DATE ( 2021, 26, 11 ) ;
#186 = ORIENTED_EDGE ( 'NONE', *, *, #118, .F. ) ;
#187 = APPROVAL_STATUS ( 'not_yet_approved' ) ;
#188 = ORIENTED_EDGE ( 'NONE', *, *, #226, .F. ) ;
#189 = APPLICATION_PROTOCOL_DEFINITION ( 'international standard', 'config_control_design', 1994, #207 ) ;
#190 = FACE_OUTER_BOUND ( 'NONE', #213, .T. ) ;
#191 = DIRECTION ( 'NONE',  ( -4.275831445896957731E-31, -1.000000000000000000, -1.224646799147352961E-16 ) ) ;
#192 = DIRECTION ( 'NONE',  ( 4.402029827283483039E-31, 1.000000000000000000, 1.224646799147352961E-16 ) ) ;
#193 = AXIS2_PLACEMENT_3D ( 'NONE', #242, #125, #147 ) ;
#194 = DIRECTION ( 'NONE',  ( 3.491481338843133355E-15, -1.224646799147352961E-16, 1.000000000000000000 ) ) ;
#195 = APPROVAL ( #252, 'UNSPECIFIED' ) ;
#196 = CARTESIAN_POINT ( 'NONE',  ( -7.955067630156447445E-32, 2.790262116508912349E-33, -2.278421924143027996E-17 ) ) ;
#197 = VERTEX_POINT ( 'NONE', #67 ) ;
#198 = AXIS2_PLACEMENT_3D ( 'NONE', #217, #37, #124 ) ;
#199 = DIRECTION ( 'NONE',  ( -3.491481338843133355E-15, 1.224646799147352961E-16, -1.000000000000000000 ) ) ;
#200 = DIRECTION ( 'NONE',  ( 4.275831445896957731E-31, 1.000000000000000000, 1.224646799147353207E-16 ) ) ;
#201 = ORIENTED_EDGE ( 'NONE', *, *, #83, .T. ) ;
#202 = CC_DESIGN_APPROVAL ( #166, ( #282 ) ) ;
#203 = DIRECTION ( 'NONE',  ( -3.491481338843133355E-15, 1.224646799147352961E-16, -1.000000000000000000 ) ) ;
#204 = CONICAL_SURFACE ( 'NONE', #134, 1.200000000000003286, 0.7853981633974453924 ) ;
#205 = COORDINATED_UNIVERSAL_TIME_OFFSET ( 1, 0, .AHEAD. ) ;
#206 = COORDINATED_UNIVERSAL_TIME_OFFSET ( 1, 0, .AHEAD. ) ;
#207 = APPLICATION_CONTEXT ( 'configuration controlled 3d designs of mechanical parts and assemblies' ) ;
#208 = ORIENTED_EDGE ( 'NONE', *, *, #169, .T. ) ;
#209 = DIRECTION ( 'NONE',  ( -4.275831445896957731E-31, -1.000000000000000000, -1.224646799147352961E-16 ) ) ;
#210 = AXIS2_PLACEMENT_3D ( 'NONE', #174, #240, #5 ) ;
#211 = PRODUCT ( '964623', '964623', '', ( #245 ) ) ;
#212 = DIRECTION ( 'NONE',  ( 3.491481338843133355E-15, -1.224646799147352961E-16, 1.000000000000000000 ) ) ;
#213 = EDGE_LOOP ( 'NONE', ( #164 ) ) ;
#214 = DIRECTION ( 'NONE',  ( -3.491481338843133355E-15, 1.224646799147352961E-16, -1.000000000000000000 ) ) ;
#215 = LOCAL_TIME ( 15, 47, 31.00000000000000000, #253 ) ;
#216 = CARTESIAN_POINT ( 'NONE',  ( 1.745740669421566678E-14, -4.336808689942017736E-16, 5.000000000000000000 ) ) ;
#217 = CARTESIAN_POINT ( 'NONE',  ( 0.0000000000000000000, 0.0000000000000000000, 0.0000000000000000000 ) ) ;
#218 = CC_DESIGN_PERSON_AND_ORGANIZATION_ASSIGNMENT ( #220, #162, ( #211 ) ) ;
#219 = DIRECTION ( 'NONE',  ( 1.000000000000000000, 0.0000000000000000000, 0.0000000000000000000 ) ) ;
#220 = PERSON_AND_ORGANIZATION ( #163, #161 ) ;
#221 = VERTEX_POINT ( 'NONE', #93 ) ;
#222 = ADVANCED_FACE ( 'NONE', ( #265, #243 ), #247, .T. ) ;
#223 = CARTESIAN_POINT ( 'NONE',  ( 3.491481338843133848E-16, 0.2084999999999993803, 0.1000000000000000056 ) ) ;
#224 = AXIS2_PLACEMENT_3D ( 'NONE', #131, #9, #43 ) ;
#225 = EDGE_LOOP ( 'NONE', ( #136 ) ) ;
#226 = EDGE_CURVE ( 'NONE', #197, #197, #63, .T. ) ;
#227 = APPROVAL_ROLE ( '' ) ;
#228 = CC_DESIGN_DATE_AND_TIME_ASSIGNMENT ( #167, #137, ( #80 ) ) ;
#229 = ORIENTED_EDGE ( 'NONE', *, *, #152, .F. ) ;
#230 = APPROVAL_DATE_TIME ( #120, #166 ) ;
#231 = AXIS2_PLACEMENT_3D ( 'NONE', #56, #26, #172 ) ;
#232 = EDGE_LOOP ( 'NONE', ( #272 ) ) ;
#233 = PERSON_AND_ORGANIZATION ( #163, #161 ) ;
#234 = CARTESIAN_POINT ( 'NONE',  ( 1.326762908760390423E-13, -4.653657836759941152E-15, 38.00000000000000000 ) ) ;
#235 = AXIS2_PLACEMENT_3D ( 'NONE', #170, #102, #146 ) ;
#236 = EDGE_CURVE ( 'NONE', #181, #181, #241, .T. ) ;
#237 = DIRECTION ( 'NONE',  ( 3.491481338843133355E-15, -1.224646799147352961E-16, 1.000000000000000000 ) ) ;
#238 = CARTESIAN_POINT ( 'NONE',  ( 1.047444401652940007E-14, 1.563499573424978948E-33, 3.000000000000000000 ) ) ;
#239 = PRODUCT_DEFINITION_SHAPE ( 'NONE', 'NONE',  #80 ) ;
#240 = DIRECTION ( 'NONE',  ( 3.491481338843133355E-15, -1.224646799147352961E-16, 1.000000000000000000 ) ) ;
#241 = CIRCLE ( 'NONE', #279, 0.2084999999999997966 ) ;
#242 = CARTESIAN_POINT ( 'NONE',  ( 1.866998543791203065E-14, -6.548549365651903409E-16, 5.347296355333847728 ) ) ;
#243 = FACE_OUTER_BOUND ( 'NONE', #232, .T. ) ;
#244 = CARTESIAN_POINT ( 'NONE',  ( 0.0000000000000000000, 0.0000000000000000000, 0.0000000000000000000 ) ) ;
#245 = MECHANICAL_CONTEXT ( 'NONE', #143, 'mechanical' ) ;
#246 = CC_DESIGN_PERSON_AND_ORGANIZATION_ASSIGNMENT ( #278, #49, ( #50 ) ) ;
#247 = CYLINDRICAL_SURFACE ( 'NONE', #41, 1.500000000000000000 ) ;
#248 = DATE_AND_TIME ( #185, #65 ) ;
#249 = PERSON_AND_ORGANIZATION ( #163, #161 ) ;
#250 = CC_DESIGN_PERSON_AND_ORGANIZATION_ASSIGNMENT ( #98, #139, ( #282 ) ) ;
#251 = EDGE_LOOP ( 'NONE', ( #262 ) ) ;
#252 = APPROVAL_STATUS ( 'not_yet_approved' ) ;
#253 = COORDINATED_UNIVERSAL_TIME_OFFSET ( 1, 0, .AHEAD. ) ;
#254 = APPROVAL_ROLE ( '' ) ;
#255 = CIRCLE ( 'NONE', #193, 0.2388844939755808972 ) ;
#256 = ORIENTED_EDGE ( 'NONE', *, *, #129, .T. ) ;
#257 = DIRECTION ( 'NONE',  ( -3.491481338843133355E-15, 1.224646799147352961E-16, -1.000000000000000000 ) ) ;
#258 = FACE_OUTER_BOUND ( 'NONE', #273, .T. ) ;
#259 = CARTESIAN_POINT ( 'NONE',  ( -1.591013526031289489E-31, 5.580524233017824698E-33, -4.556843848286055992E-17 ) ) ;
#260 = EDGE_LOOP ( 'NONE', ( #201 ) ) ;
#261 = CYLINDRICAL_SURFACE ( 'NONE', #198, 0.2084999999999996023 ) ;
#262 = ORIENTED_EDGE ( 'NONE', *, *, #236, .F. ) ;
#263 = CYLINDRICAL_SURFACE ( 'NONE', #126, 0.2084999999999999631 ) ;
#264 = AXIS2_PLACEMENT_3D ( 'NONE', #31, #203, #45 ) ;
#265 = FACE_OUTER_BOUND ( 'NONE', #184, .T. ) ;
#266 = VERTEX_POINT ( 'NONE', #223 ) ;
#267 = LOCAL_TIME ( 15, 47, 31.00000000000000000, #205 ) ;
#268 = AXIS2_PLACEMENT_3D ( 'NONE', #127, #214, #121 ) ;
#269 = VERTEX_POINT ( 'NONE', #111 ) ;
#270 = ADVANCED_FACE ( 'NONE', ( #14, #109 ), #110, .T. ) ;
#271 = COORDINATED_UNIVERSAL_TIME_OFFSET ( 1, 0, .AHEAD. ) ;
#272 = ORIENTED_EDGE ( 'NONE', *, *, #46, .T. ) ;
#273 = EDGE_LOOP ( 'NONE', ( #78 ) ) ;
#274 = PERSON_AND_ORGANIZATION_ROLE ( 'design_supplier' ) ;
#275 = EDGE_CURVE ( 'NONE', #266, #266, #101, .T. ) ;
#276 = ORIENTED_EDGE ( 'NONE', *, *, #226, .T. ) ;
#277 = ORIENTED_EDGE ( 'NONE', *, *, #46, .F. ) ;
#278 = PERSON_AND_ORGANIZATION ( #163, #161 ) ;
#279 = AXIS2_PLACEMENT_3D ( 'NONE', #28, #159, #44 ) ;
#280 = PLANE ( 'NONE',  #210 ) ;
#281 = UNCERTAINTY_MEASURE_WITH_UNIT (LENGTH_MEASURE( 1.000000000000000082E-05 ), #133, 'distance_accuracy_value', 'NONE');
#282 = SECURITY_CLASSIFICATION ( '', '', #33 ) ;
#283 = CARTESIAN_POINT ( 'NONE',  ( 1.326762908760390423E-13, -4.653657836759941152E-15, 38.00000000000000000 ) ) ;
ENDSEC;
END-ISO-10303-21;
