ISO-10303-21;
HEADER;
FILE_DESCRIPTION (( 'STEP AP203' ),
    '1' );
FILE_NAME ('964530.step',
    '2021-12-01T14:04:21',
    ( '' ),
    ( '' ),
    'SwSTEP 2.0',
    'SolidWorks 2019',
    '' );
FILE_SCHEMA (( 'CONFIG_CONTROL_DESIGN' ));
ENDSEC;

DATA;
#1 = CARTESIAN_POINT ( 'NONE',  ( 2.853659301800059926E-14, -1.000928944092381873E-15, 8.173205080756899221 ) ) ;
#2 = CARTESIAN_POINT ( 'NONE',  ( 5.935518276033326704E-14, -2.168404344971008868E-15, 17.00000000000000000 ) ) ;
#3 =( NAMED_UNIT ( * ) SI_UNIT ( $, .STERADIAN. ) SOLID_ANGLE_UNIT ( ) );
#4 = AXIS2_PLACEMENT_3D ( 'NONE', #124, #33, #199 ) ;
#5 = PERSON_AND_ORGANIZATION_ROLE ( 'creator' ) ;
#6 = PERSON_AND_ORGANIZATION ( #202, #65 ) ;
#7 = CONICAL_SURFACE ( 'NONE', #126, 0.8349999999999940803, 0.5235987755982981495 ) ;
#8 = DATE_AND_TIME ( #284, #223 ) ;
#9 = APPROVAL_STATUS ( 'not_yet_approved' ) ;
#10 = FACE_OUTER_BOUND ( 'NONE', #75, .T. ) ;
#11 = TOROIDAL_SURFACE ( 'NONE', #302, 2.834999999999995079, 1.999999999999999112 ) ;
#12 = CARTESIAN_POINT ( 'NONE',  ( -1.690369646419571839E-31, 5.929018591144698421E-33, -4.841411087076462913E-17 ) ) ;
#13 = DIRECTION ( 'NONE',  ( -4.275831445896958607E-31, -1.000000000000000000, -1.224646799147353207E-16 ) ) ;
#14 = PLANE ( 'NONE',  #282 ) ;
#15 = ADVANCED_FACE ( 'NONE', ( #221, #222 ), #7, .T. ) ;
#16 = ORIENTED_EDGE ( 'NONE', *, *, #260, .F. ) ;
#17 = AXIS2_PLACEMENT_3D ( 'NONE', #272, #57, #225 ) ;
#18 = AXIS2_PLACEMENT_3D ( 'NONE', #23, #298, #229 ) ;
#19 = DIRECTION ( 'NONE',  ( -3.491481338843133355E-15, 1.224646799147353207E-16, -1.000000000000000000 ) ) ;
#20 = CARTESIAN_POINT ( 'NONE',  ( 2.853659301800059926E-14, 0.8349999999999930811, 8.173205080756899221 ) ) ;
#21 = DIRECTION ( 'NONE',  ( -3.491481338843133355E-15, 1.224646799147353207E-16, -1.000000000000000000 ) ) ;
#22 = DIRECTION ( 'NONE',  ( -4.275831445896958607E-31, -1.000000000000000000, -1.224646799147353207E-16 ) ) ;
#23 = CARTESIAN_POINT ( 'NONE',  ( 7.313389396839881837E-14, -2.565191689876177107E-15, 20.94637973709777512 ) ) ;
#24 = ADVANCED_FACE ( 'NONE', ( #84 ), #37, .T. ) ;
#25 = PERSON_AND_ORGANIZATION ( #202, #65 ) ;
#26 = CARTESIAN_POINT ( 'NONE',  ( 8.728703347107835360E-16, 0.9349999999999991651, 0.2500000000000000555 ) ) ;
#27 = ORIENTED_EDGE ( 'NONE', *, *, #153, .T. ) ;
#28 = CC_DESIGN_PERSON_AND_ORGANIZATION_ASSIGNMENT ( #25, #5, ( #203 ) ) ;
#29 = DIRECTION ( 'NONE',  ( 0.0000000000000000000, 0.0000000000000000000, 1.000000000000000000 ) ) ;
#30 = CARTESIAN_POINT ( 'NONE',  ( 7.313389396839881837E-14, 1.499999999999994005, 20.94637973709777512 ) ) ;
#31 = ORIENTED_EDGE ( 'NONE', *, *, #258, .F. ) ;
#32 = APPROVAL_DATE_TIME ( #224, #167 ) ;
#33 = DIRECTION ( 'NONE',  ( -3.491481338843133355E-15, 1.224646799147353207E-16, -1.000000000000000000 ) ) ;
#34 = MANIFOLD_SOLID_BREP ( 'Corps-Déplacer/Copier1[2]', #245 ) ;
#35 = CARTESIAN_POINT ( 'NONE',  ( 2.793185071074506684E-14, -9.797174393178825657E-16, 8.000000000000000000 ) ) ;
#36 = EDGE_LOOP ( 'NONE', ( #270 ) ) ;
#37 = PLANE ( 'NONE',  #155 ) ;
#38 = APPROVAL ( #52, 'UNSPECIFIED' ) ;
#39 = EDGE_LOOP ( 'NONE', ( #16 ) ) ;
#40 = CARTESIAN_POINT ( 'NONE',  ( 2.793185071074506684E-14, 0.9349999999999991651, 8.000000000000000000 ) ) ;
#41 = CARTESIAN_POINT ( 'NONE',  ( 2.793185071074506684E-14, 7.011376983944171179E-33, 8.000000000000000000 ) ) ;
#42 = PLANE ( 'NONE',  #291 ) ;
#43 = DIRECTION ( 'NONE',  ( 0.0000000000000000000, 1.000000000000000000, 0.0000000000000000000 ) ) ;
#44 = CC_DESIGN_SECURITY_CLASSIFICATION ( #297, ( #198 ) ) ;
#45 = DIRECTION ( 'NONE',  ( 0.0000000000000000000, 1.000000000000000000, 0.0000000000000000000 ) ) ;
#46 =( NAMED_UNIT ( * ) PLANE_ANGLE_UNIT ( ) SI_UNIT ( $, .RADIAN. ) );
#47 = PERSON_AND_ORGANIZATION ( #202, #65 ) ;
#48 = ORIENTED_EDGE ( 'NONE', *, *, #180, .F. ) ;
#49 = MECHANICAL_CONTEXT ( 'NONE', #303, 'mechanical' ) ;
#50 = PERSON_AND_ORGANIZATION ( #202, #65 ) ;
#51 = EDGE_LOOP ( 'NONE', ( #246 ) ) ;
#52 = APPROVAL_STATUS ( 'not_yet_approved' ) ;
#53 = AXIS2_PLACEMENT_3D ( 'NONE', #210, #90, #179 ) ;
#54 = APPROVAL_PERSON_ORGANIZATION ( #247, #167, #173 ) ;
#55 = CYLINDRICAL_SURFACE ( 'NONE', #4, 1.499999999999999112 ) ;
#56 = CC_DESIGN_PERSON_AND_ORGANIZATION_ASSIGNMENT ( #6, #143, ( #80 ) ) ;
#57 = DIRECTION ( 'NONE',  ( -3.491481338843133355E-15, 1.224646799147353207E-16, -1.000000000000000000 ) ) ;
#58 = DIRECTION ( 'NONE',  ( 3.491481338843133355E-15, -1.224646799147353207E-16, 1.000000000000000000 ) ) ;
#59 = CARTESIAN_POINT ( 'NONE',  ( 2.853659301800059926E-14, -1.000928944092381873E-15, 8.173205080756899221 ) ) ;
#60 = ORIENTED_EDGE ( 'NONE', *, *, #133, .T. ) ;
#61 = CARTESIAN_POINT ( 'NONE',  ( 7.313389396839881837E-14, -2.565191689876177107E-15, 20.94637973709777512 ) ) ;
#62 = EDGE_CURVE ( 'NONE', #67, #67, #139, .T. ) ;
#63 = DIRECTION ( 'NONE',  ( 0.0000000000000000000, 1.000000000000000000, 0.0000000000000000000 ) ) ;
#64 = CONICAL_SURFACE ( 'NONE', #182, 1.200000000000001732, 0.7853981633974453924 ) ;
#65 = ORGANIZATION ( 'UNSPECIFIED', 'UNSPECIFIED', '' ) ;
#66 = APPROVAL ( #213, 'UNSPECIFIED' ) ;
#67 = VERTEX_POINT ( 'NONE', #40 ) ;
#68 = FACE_OUTER_BOUND ( 'NONE', #174, .T. ) ;
#69 = DIRECTION ( 'NONE',  ( 4.275831445896958607E-31, 1.000000000000000000, 1.224646799147352961E-16 ) ) ;
#70 = CONICAL_SURFACE ( 'NONE', #128, 1.499999999999996669, 0.1745329251994257591 ) ;
#71 = COORDINATED_UNIVERSAL_TIME_OFFSET ( 1, 0, .AHEAD. ) ;
#72 = APPLICATION_PROTOCOL_DEFINITION ( 'international standard', 'config_control_design', 1994, #161 ) ;
#73 = DATE_AND_TIME ( #166, #261 ) ;
#74 = APPLICATION_PROTOCOL_DEFINITION ( 'international standard', 'config_control_design', 1994, #303 ) ;
#75 = EDGE_LOOP ( 'NONE', ( #219 ) ) ;
#76 = AXIS2_PLACEMENT_3D ( 'NONE', #257, #19, #69 ) ;
#77 = CC_DESIGN_APPROVAL ( #66, ( #203 ) ) ;
#78 = ORIENTED_EDGE ( 'NONE', *, *, #186, .T. ) ;
#79 = COORDINATED_UNIVERSAL_TIME_OFFSET ( 1, 0, .AHEAD. ) ;
#80 = PRODUCT ( '964530', '964530', '', ( #49 ) ) ;
#81 = CARTESIAN_POINT ( 'NONE',  ( 0.0000000000000000000, 0.0000000000000000000, 0.0000000000000000000 ) ) ;
#82 = ORIENTED_EDGE ( 'NONE', *, *, #62, .T. ) ;
#83 = AXIS2_PLACEMENT_3D ( 'NONE', #281, #132, #280 ) ;
#84 = FACE_OUTER_BOUND ( 'NONE', #115, .T. ) ;
#85 = FACE_BOUND ( 'NONE', #244, .T. ) ;
#86 = PRODUCT_DEFINITION_SHAPE ( 'NONE', 'NONE',  #203 ) ;
#87 = DIRECTION ( 'NONE',  ( -3.491481338843133355E-15, 1.224646799147353207E-16, -1.000000000000000000 ) ) ;
#88 = CARTESIAN_POINT ( 'NONE',  ( 1.735266225405037467E-13, 1.499999999999995559, 49.70000000000000284 ) ) ;
#89 = CC_DESIGN_APPROVAL ( #38, ( #198 ) ) ;
#90 = DIRECTION ( 'NONE',  ( -3.491481338843133355E-15, 1.224646799147353207E-16, -1.000000000000000000 ) ) ;
#91 = ADVANCED_FACE ( 'NONE', ( #10, #120 ), #55, .T. ) ;
#92 = CARTESIAN_POINT ( 'NONE',  ( 2.793185071074506684E-14, -9.797174393178825657E-16, 8.000000000000000000 ) ) ;
#93 = UNCERTAINTY_MEASURE_WITH_UNIT (LENGTH_MEASURE( 1.000000000000000082E-05 ), #235, 'distance_accuracy_value', 'NONE');
#94 = AXIS2_PLACEMENT_3D ( 'NONE', #279, #232, #45 ) ;
#95 = ADVANCED_FACE ( 'NONE', ( #226, #100 ), #177, .T. ) ;
#96 = COORDINATED_UNIVERSAL_TIME_OFFSET ( 1, 0, .AHEAD. ) ;
#97 = DATE_AND_TIME ( #194, #275 ) ;
#98 = EDGE_LOOP ( 'NONE', ( #141 ) ) ;
#99 = EDGE_LOOP ( 'NONE', ( #227 ) ) ;
#100 = FACE_OUTER_BOUND ( 'NONE', #216, .T. ) ;
#101 = ADVANCED_FACE ( 'NONE', ( #195 ), #14, .F. ) ;
#102 = CC_DESIGN_APPROVAL ( #167, ( #297 ) ) ;
#103 = ORIENTED_EDGE ( 'NONE', *, *, #258, .T. ) ;
#104 = DIRECTION ( 'NONE',  ( -3.491481338843133355E-15, 1.224646799147353207E-16, -1.000000000000000000 ) ) ;
#105 = EDGE_LOOP ( 'NONE', ( #145 ) ) ;
#106 = DIRECTION ( 'NONE',  ( 3.491481338843133355E-15, -1.224646799147353207E-16, 1.000000000000000000 ) ) ;
#107 = ADVANCED_FACE ( 'NONE', ( #172 ), #290, .F. ) ;
#108 = VERTEX_POINT ( 'NONE', #88 ) ;
#109 = CARTESIAN_POINT ( 'NONE',  ( 1.735266225405037467E-13, -6.086494591762345225E-15, 49.70000000000000284 ) ) ;
#110 = CIRCLE ( 'NONE', #271, 0.9349999999999991651 ) ;
#111 = DIRECTION ( 'NONE',  ( -3.491481338843133355E-15, 1.224646799147353207E-16, -1.000000000000000000 ) ) ;
#112 = VERTEX_POINT ( 'NONE', #168 ) ;
#113 = ADVANCED_BREP_SHAPE_REPRESENTATION ( '964530', ( #129, #34, #121 ), #254 ) ;
#114 = DIRECTION ( 'NONE',  ( 1.000000000000000000, 0.0000000000000000000, 0.0000000000000000000 ) ) ;
#115 = EDGE_LOOP ( 'NONE', ( #214 ) ) ;
#116 = CALENDAR_DATE ( 2021, 1, 12 ) ;
#117 = EDGE_LOOP ( 'NONE', ( #240 ) ) ;
#118 = EDGE_CURVE ( 'NONE', #206, #206, #217, .T. ) ;
#119 = CALENDAR_DATE ( 2021, 1, 12 ) ;
#120 = FACE_OUTER_BOUND ( 'NONE', #238, .T. ) ;
#121 = AXIS2_PLACEMENT_3D ( 'NONE', #212, #29, #114 ) ;
#122 = COORDINATED_UNIVERSAL_TIME_OFFSET ( 1, 0, .AHEAD. ) ;
#123 = DIRECTION ( 'NONE',  ( 4.275831445896958607E-31, 1.000000000000000000, 1.224646799147353207E-16 ) ) ;
#124 = CARTESIAN_POINT ( 'NONE',  ( 0.0000000000000000000, 0.0000000000000000000, 0.0000000000000000000 ) ) ;
#125 = ORIENTED_EDGE ( 'NONE', *, *, #264, .T. ) ;
#126 = AXIS2_PLACEMENT_3D ( 'NONE', #59, #150, #250 ) ;
#127 = DIRECTION ( 'NONE',  ( -3.491481338843133355E-15, 1.224646799147353207E-16, -1.000000000000000000 ) ) ;
#128 = AXIS2_PLACEMENT_3D ( 'NONE', #61, #106, #252 ) ;
#129 = MANIFOLD_SOLID_BREP ( 'Corps-Déplacer/Copier1[1]', #265 ) ;
#130 = CARTESIAN_POINT ( 'NONE',  ( 1.745740669421566678E-13, 1.199999999999995515, 50.00000000000000000 ) ) ;
#131 = ADVANCED_FACE ( 'NONE', ( #201, #294 ), #187, .T. ) ;
#132 = DIRECTION ( 'NONE',  ( 3.491481338843133355E-15, -1.224646799147353207E-16, 1.000000000000000000 ) ) ;
#133 = EDGE_CURVE ( 'NONE', #156, #156, #193, .T. ) ;
#134 = DIRECTION ( 'NONE',  ( -3.491481338843133355E-15, 1.224646799147353207E-16, -1.000000000000000000 ) ) ;
#135 = DIRECTION ( 'NONE',  ( 0.0000000000000000000, 1.000000000000000000, 0.0000000000000000000 ) ) ;
#136 = VERTEX_POINT ( 'NONE', #26 ) ;
#137 = CARTESIAN_POINT ( 'NONE',  ( 5.935518276033326704E-14, 0.8349999999999928590, 17.00000000000000000 ) ) ;
#138 = EDGE_LOOP ( 'NONE', ( #78 ) ) ;
#139 = CIRCLE ( 'NONE', #175, 0.9350000000000001643 ) ;
#140 = AXIS2_PLACEMENT_3D ( 'NONE', #92, #185, #157 ) ;
#141 = ORIENTED_EDGE ( 'NONE', *, *, #260, .T. ) ;
#142 = PERSON_AND_ORGANIZATION_ROLE ( 'design_supplier' ) ;
#143 = PERSON_AND_ORGANIZATION_ROLE ( 'design_owner' ) ;
#144 = CIRCLE ( 'NONE', #196, 1.500000000000001554 ) ;
#145 = ORIENTED_EDGE ( 'NONE', *, *, #118, .F. ) ;
#146 = ADVANCED_FACE ( 'NONE', ( #256, #208 ), #278, .T. ) ;
#147 = CARTESIAN_POINT ( 'NONE',  ( 2.793185071074506684E-14, 7.011376983944171179E-33, 8.000000000000000000 ) ) ;
#148 = DIRECTION ( 'NONE',  ( 0.0000000000000000000, 1.000000000000000000, 0.0000000000000000000 ) ) ;
#149 = AXIS2_PLACEMENT_3D ( 'NONE', #12, #276, #249 ) ;
#150 = DIRECTION ( 'NONE',  ( -3.491481338843133355E-15, 1.224646799147353207E-16, -1.000000000000000000 ) ) ;
#151 = SHAPE_DEFINITION_REPRESENTATION ( #86, #113 ) ;
#152 = EDGE_LOOP ( 'NONE', ( #205 ) ) ;
#153 = EDGE_CURVE ( 'NONE', #231, #231, #170, .T. ) ;
#154 = FACE_OUTER_BOUND ( 'NONE', #251, .T. ) ;
#155 = AXIS2_PLACEMENT_3D ( 'NONE', #147, #58, #13 ) ;
#156 = VERTEX_POINT ( 'NONE', #130 ) ;
#157 = DIRECTION ( 'NONE',  ( 0.0000000000000000000, 1.000000000000000000, 0.0000000000000000000 ) ) ;
#158 = FACE_BOUND ( 'NONE', #293, .T. ) ;
#159 = FACE_OUTER_BOUND ( 'NONE', #98, .T. ) ;
#160 = APPROVAL_DATE_TIME ( #97, #38 ) ;
#161 = APPLICATION_CONTEXT ( 'configuration controlled 3d designs of mechanical parts and assemblies' ) ;
#162 = ADVANCED_FACE ( 'NONE', ( #159 ), #42, .F. ) ;
#163 = APPROVAL_DATE_TIME ( #8, #66 ) ;
#164 = DATE_TIME_ROLE ( 'creation_date' ) ;
#165 = CIRCLE ( 'NONE', #209, 0.8653844939755772625 ) ;
#166 = CALENDAR_DATE ( 2021, 1, 12 ) ;
#167 = APPROVAL ( #9, 'UNSPECIFIED' ) ;
#168 = CARTESIAN_POINT ( 'NONE',  ( 6.056776150402961829E-14, 0.8653844939755751531, 17.34729635533384240 ) ) ;
#169 = DIRECTION ( 'NONE',  ( -3.491481338843133355E-15, 1.224646799147353207E-16, -1.000000000000000000 ) ) ;
#170 = CIRCLE ( 'NONE', #253, 0.8349999999999940803 ) ;
#171 = DIRECTION ( 'NONE',  ( -3.491481338843133355E-15, 1.224646799147353207E-16, -1.000000000000000000 ) ) ;
#172 = FACE_OUTER_BOUND ( 'NONE', #267, .T. ) ;
#173 = APPROVAL_ROLE ( '' ) ;
#174 = EDGE_LOOP ( 'NONE', ( #48 ) ) ;
#175 = AXIS2_PLACEMENT_3D ( 'NONE', #35, #169, #148 ) ;
#176 = CIRCLE ( 'NONE', #18, 1.499999999999996669 ) ;
#177 = CYLINDRICAL_SURFACE ( 'NONE', #237, 0.9349999999999996092 ) ;
#178 = CC_DESIGN_DATE_AND_TIME_ASSIGNMENT ( #220, #200, ( #297 ) ) ;
#179 = DIRECTION ( 'NONE',  ( 0.0000000000000000000, 1.000000000000000000, 0.0000000000000000000 ) ) ;
#180 = EDGE_CURVE ( 'NONE', #108, #108, #144, .T. ) ;
#181 = CARTESIAN_POINT ( 'NONE',  ( 0.0000000000000000000, 0.7906624327025950638, 0.0000000000000000000 ) ) ;
#182 = AXIS2_PLACEMENT_3D ( 'NONE', #259, #87, #43 ) ;
#183 = DIRECTION ( 'NONE',  ( 0.0000000000000000000, 1.000000000000000000, 0.0000000000000000000 ) ) ;
#184 = DIRECTION ( 'NONE',  ( 4.119636244678582803E-31, 1.000000000000000000, 1.159574516027278437E-16 ) ) ;
#185 = DIRECTION ( 'NONE',  ( -3.491481338843133355E-15, 1.224646799147353207E-16, -1.000000000000000000 ) ) ;
#186 = EDGE_CURVE ( 'NONE', #190, #190, #296, .T. ) ;
#187 = CONICAL_SURFACE ( 'NONE', #83, 0.9349999999999991651, 0.5235987755982919323 ) ;
#188 = APPROVAL_PERSON_ORGANIZATION ( #215, #38, #239 ) ;
#189 = PRODUCT_RELATED_PRODUCT_CATEGORY ( 'detail', '', ( #80 ) ) ;
#190 = VERTEX_POINT ( 'NONE', #137 ) ;
#191 = EDGE_CURVE ( 'NONE', #136, #136, #110, .T. ) ;
#192 = VERTEX_POINT ( 'NONE', #243 ) ;
#193 = CIRCLE ( 'NONE', #94, 1.200000000000001732 ) ;
#194 = CALENDAR_DATE ( 2021, 1, 12 ) ;
#195 = FACE_OUTER_BOUND ( 'NONE', #152, .T. ) ;
#196 = AXIS2_PLACEMENT_3D ( 'NONE', #109, #134, #183 ) ;
#197 = CC_DESIGN_PERSON_AND_ORGANIZATION_ASSIGNMENT ( #288, #268, ( #198 ) ) ;
#198 = PRODUCT_DEFINITION_FORMATION_WITH_SPECIFIED_SOURCE ( 'ANY', '', #80, .NOT_KNOWN. ) ;
#199 = DIRECTION ( 'NONE',  ( 4.275831445896958607E-31, 1.000000000000000000, 1.224646799147353454E-16 ) ) ;
#200 = DATE_TIME_ROLE ( 'classification_date' ) ;
#201 = FACE_BOUND ( 'NONE', #105, .T. ) ;
#202 = PERSON ( 'UNSPECIFIED', 'UNSPECIFIED', 'UNSPECIFIED', ('UNSPECIFIED'), ('UNSPECIFIED'), ('UNSPECIFIED') ) ;
#203 = PRODUCT_DEFINITION ( 'UNKNOWN', '', #198, #283 ) ;
#204 = DIRECTION ( 'NONE',  ( 4.275831445896958607E-31, 1.000000000000000000, 1.224646799147353207E-16 ) ) ;
#205 = ORIENTED_EDGE ( 'NONE', *, *, #133, .F. ) ;
#206 = VERTEX_POINT ( 'NONE', #181 ) ;
#207 = ADVANCED_FACE ( 'NONE', ( #68, #158 ), #64, .T. ) ;
#208 = FACE_OUTER_BOUND ( 'NONE', #138, .T. ) ;
#209 = AXIS2_PLACEMENT_3D ( 'NONE', #211, #277, #63 ) ;
#210 = CARTESIAN_POINT ( 'NONE',  ( 5.935518276033326704E-14, -2.081899558550500280E-15, 17.00000000000000000 ) ) ;
#211 = CARTESIAN_POINT ( 'NONE',  ( 6.056776150402961829E-14, -2.124431095542013598E-15, 17.34729635533384240 ) ) ;
#212 = CARTESIAN_POINT ( 'NONE',  ( 0.0000000000000000000, 0.0000000000000000000, 0.0000000000000000000 ) ) ;
#213 = APPROVAL_STATUS ( 'not_yet_approved' ) ;
#214 = ORIENTED_EDGE ( 'NONE', *, *, #62, .F. ) ;
#215 = PERSON_AND_ORGANIZATION ( #202, #65 ) ;
#216 = EDGE_LOOP ( 'NONE', ( #82 ) ) ;
#217 = CIRCLE ( 'NONE', #17, 0.7906624327025950638 ) ;
#218 = LOCAL_TIME ( 15, 4, 21.00000000000000000, #122 ) ;
#219 = ORIENTED_EDGE ( 'NONE', *, *, #264, .F. ) ;
#220 = DATE_AND_TIME ( #116, #218 ) ;
#221 = FACE_OUTER_BOUND ( 'NONE', #39, .T. ) ;
#222 = FACE_BOUND ( 'NONE', #248, .T. ) ;
#223 = LOCAL_TIME ( 15, 4, 21.00000000000000000, #266 ) ;
#224 = DATE_AND_TIME ( #119, #228 ) ;
#225 = DIRECTION ( 'NONE',  ( 4.275831445896958607E-31, 1.000000000000000000, 1.224646799147353207E-16 ) ) ;
#226 = FACE_OUTER_BOUND ( 'NONE', #99, .T. ) ;
#227 = ORIENTED_EDGE ( 'NONE', *, *, #191, .F. ) ;
#228 = LOCAL_TIME ( 15, 4, 21.00000000000000000, #79 ) ;
#229 = DIRECTION ( 'NONE',  ( 0.0000000000000000000, 1.000000000000000000, 0.0000000000000000000 ) ) ;
#230 = ADVANCED_FACE ( 'NONE', ( #233, #154 ), #11, .F. ) ;
#231 = VERTEX_POINT ( 'NONE', #20 ) ;
#232 = DIRECTION ( 'NONE',  ( -3.491481338843133355E-15, 1.224646799147353207E-16, -1.000000000000000000 ) ) ;
#233 = FACE_OUTER_BOUND ( 'NONE', #51, .T. ) ;
#234 = CARTESIAN_POINT ( 'NONE',  ( 8.728703347107831416E-16, -3.061616997868382402E-17, 0.2499999999999999445 ) ) ;
#235 =( LENGTH_UNIT ( ) NAMED_UNIT ( * ) SI_UNIT ( .MILLI., .METRE. ) );
#236 = APPROVAL_ROLE ( '' ) ;
#237 = AXIS2_PLACEMENT_3D ( 'NONE', #81, #171, #123 ) ;
#238 = EDGE_LOOP ( 'NONE', ( #242 ) ) ;
#239 = APPROVAL_ROLE ( '' ) ;
#240 = ORIENTED_EDGE ( 'NONE', *, *, #153, .F. ) ;
#241 = SECURITY_CLASSIFICATION_LEVEL ( 'unclassified' ) ;
#242 = ORIENTED_EDGE ( 'NONE', *, *, #180, .T. ) ;
#243 = CARTESIAN_POINT ( 'NONE',  ( 2.793185071074506684E-14, 0.9349999999999991651, 8.000000000000000000 ) ) ;
#244 = EDGE_LOOP ( 'NONE', ( #31 ) ) ;
#245 = CLOSED_SHELL ( 'NONE', ( #107, #131, #95, #24 ) ) ;
#246 = ORIENTED_EDGE ( 'NONE', *, *, #186, .F. ) ;
#247 = PERSON_AND_ORGANIZATION ( #202, #65 ) ;
#248 = EDGE_LOOP ( 'NONE', ( #27 ) ) ;
#249 = DIRECTION ( 'NONE',  ( -4.275831445896958607E-31, -1.000000000000000000, -1.224646799147353207E-16 ) ) ;
#250 = DIRECTION ( 'NONE',  ( 0.0000000000000000000, 1.000000000000000000, 0.0000000000000000000 ) ) ;
#251 = EDGE_LOOP ( 'NONE', ( #103 ) ) ;
#252 = DIRECTION ( 'NONE',  ( 0.0000000000000000000, -1.000000000000000000, 0.0000000000000000000 ) ) ;
#253 = AXIS2_PLACEMENT_3D ( 'NONE', #1, #21, #135 ) ;
#254 =( GEOMETRIC_REPRESENTATION_CONTEXT ( 3 ) GLOBAL_UNCERTAINTY_ASSIGNED_CONTEXT ( ( #93 ) ) GLOBAL_UNIT_ASSIGNED_CONTEXT ( ( #235, #46, #3 ) ) REPRESENTATION_CONTEXT ( 'NONE', 'WORKASPACE' ) );
#255 = CC_DESIGN_DATE_AND_TIME_ASSIGNMENT ( #73, #164, ( #203 ) ) ;
#256 = FACE_OUTER_BOUND ( 'NONE', #117, .T. ) ;
#257 = CARTESIAN_POINT ( 'NONE',  ( 0.0000000000000000000, 0.0000000000000000000, 0.0000000000000000000 ) ) ;
#258 = EDGE_CURVE ( 'NONE', #112, #112, #165, .T. ) ;
#259 = CARTESIAN_POINT ( 'NONE',  ( 1.745740669421566678E-13, -6.123233995736766085E-15, 50.00000000000000000 ) ) ;
#260 = EDGE_CURVE ( 'NONE', #192, #192, #287, .T. ) ;
#261 = LOCAL_TIME ( 15, 4, 21.00000000000000000, #96 ) ;
#262 = DIRECTION ( 'NONE',  ( 4.275831445896959482E-31, 1.000000000000000000, 1.224646799147353207E-16 ) ) ;
#263 = VERTEX_POINT ( 'NONE', #30 ) ;
#264 = EDGE_CURVE ( 'NONE', #263, #263, #176, .T. ) ;
#265 = CLOSED_SHELL ( 'NONE', ( #162, #15, #146, #230, #285, #91, #207, #101 ) ) ;
#266 = COORDINATED_UNIVERSAL_TIME_OFFSET ( 1, 0, .AHEAD. ) ;
#267 = EDGE_LOOP ( 'NONE', ( #274 ) ) ;
#268 = PERSON_AND_ORGANIZATION_ROLE ( 'creator' ) ;
#269 = PERSON_AND_ORGANIZATION_ROLE ( 'classification_officer' ) ;
#270 = ORIENTED_EDGE ( 'NONE', *, *, #191, .T. ) ;
#271 = AXIS2_PLACEMENT_3D ( 'NONE', #234, #127, #184 ) ;
#272 = CARTESIAN_POINT ( 'NONE',  ( -3.380739292839143677E-31, 1.185803718228939684E-32, -9.682822174152925826E-17 ) ) ;
#273 = EDGE_LOOP ( 'NONE', ( #125 ) ) ;
#274 = ORIENTED_EDGE ( 'NONE', *, *, #118, .T. ) ;
#275 = LOCAL_TIME ( 15, 4, 21.00000000000000000, #71 ) ;
#276 = DIRECTION ( 'NONE',  ( 3.491481338843133355E-15, -1.224646799147353207E-16, 1.000000000000000000 ) ) ;
#277 = DIRECTION ( 'NONE',  ( -3.491481338843133355E-15, 1.224646799147353207E-16, -1.000000000000000000 ) ) ;
#278 = CYLINDRICAL_SURFACE ( 'NONE', #76, 0.8349999999999945244 ) ;
#279 = CARTESIAN_POINT ( 'NONE',  ( 1.745740669421566678E-13, -6.123233995736766085E-15, 50.00000000000000000 ) ) ;
#280 = DIRECTION ( 'NONE',  ( -4.119636244678582803E-31, -1.000000000000000000, -1.159574516027278437E-16 ) ) ;
#281 = CARTESIAN_POINT ( 'NONE',  ( 8.728703347107831416E-16, -3.061616997868382402E-17, 0.2499999999999999445 ) ) ;
#282 = AXIS2_PLACEMENT_3D ( 'NONE', #295, #104, #204 ) ;
#283 = DESIGN_CONTEXT ( 'detailed design', #161, 'design' ) ;
#284 = CALENDAR_DATE ( 2021, 1, 12 ) ;
#285 = ADVANCED_FACE ( 'NONE', ( #85, #301 ), #70, .T. ) ;
#286 = CC_DESIGN_PERSON_AND_ORGANIZATION_ASSIGNMENT ( #289, #269, ( #297 ) ) ;
#287 = CIRCLE ( 'NONE', #140, 0.9350000000000001643 ) ;
#288 = PERSON_AND_ORGANIZATION ( #202, #65 ) ;
#289 = PERSON_AND_ORGANIZATION ( #202, #65 ) ;
#290 = PLANE ( 'NONE',  #149 ) ;
#291 = AXIS2_PLACEMENT_3D ( 'NONE', #41, #300, #22 ) ;
#292 = APPROVAL_PERSON_ORGANIZATION ( #47, #66, #236 ) ;
#293 = EDGE_LOOP ( 'NONE', ( #60 ) ) ;
#294 = FACE_OUTER_BOUND ( 'NONE', #36, .T. ) ;
#295 = CARTESIAN_POINT ( 'NONE',  ( 1.745740669421566678E-13, 8.998558695971067645E-33, 50.00000000000000000 ) ) ;
#296 = CIRCLE ( 'NONE', #53, 0.8349999999999949685 ) ;
#297 = SECURITY_CLASSIFICATION ( '', '', #241 ) ;
#298 = DIRECTION ( 'NONE',  ( -3.491481338843133355E-15, 1.224646799147353207E-16, -1.000000000000000000 ) ) ;
#299 = CC_DESIGN_PERSON_AND_ORGANIZATION_ASSIGNMENT ( #50, #142, ( #198 ) ) ;
#300 = DIRECTION ( 'NONE',  ( 3.491481338843133355E-15, -1.224646799147353207E-16, 1.000000000000000000 ) ) ;
#301 = FACE_OUTER_BOUND ( 'NONE', #273, .T. ) ;
#302 = AXIS2_PLACEMENT_3D ( 'NONE', #2, #111, #262 ) ;
#303 = APPLICATION_CONTEXT ( 'configuration controlled 3d designs of mechanical parts and assemblies' ) ;
ENDSEC;
END-ISO-10303-21;
