ISO-10303-21;
HEADER;
FILE_DESCRIPTION (( 'STEP AP203' ),
    '1' );
FILE_NAME ('964485.step',
    '2023-09-27T05:46:08',
    ( '' ),
    ( '' ),
    'SwSTEP 2.0',
    'SolidWorks 2022',
    '' );
FILE_SCHEMA (( 'CONFIG_CONTROL_DESIGN' ));
ENDSEC;

DATA;
#1 = VERTEX_POINT ( 'NONE', #15 ) ;
#2 = LOCAL_TIME ( 7, 46, 8.000000000000000000, #107 ) ;
#3 = DIRECTION ( 'NONE',  ( 3.491481338843133355E-15, -0.000000000000000000, 1.000000000000000000 ) ) ;
#4 = APPROVAL ( #134, 'UNSPECIFIED' ) ;
#5 = CALENDAR_DATE ( 2023, 27, 9 ) ;
#6 = ORIENTED_EDGE ( 'NONE', *, *, #19, .T. ) ;
#7 = PERSON_AND_ORGANIZATION_ROLE ( 'classification_officer' ) ;
#8 = PLANE ( 'NONE',  #69 ) ;
#9 = DATE_AND_TIME ( #155, #2 ) ;
#10 = AXIS2_PLACEMENT_3D ( 'NONE', #171, #37, #123 ) ;
#11 = CC_DESIGN_DATE_AND_TIME_ASSIGNMENT ( #43, #83, ( #174 ) ) ;
#12 = CARTESIAN_POINT ( 'NONE',  ( 1.316288464743861212E-13, 0.000000000000000000, 37.69999999999999574 ) ) ;
#13 = EDGE_LOOP ( 'NONE', ( #233 ) ) ;
#14 = EDGE_LOOP ( 'NONE', ( #36 ) ) ;
#15 = CARTESIAN_POINT ( 'NONE',  ( 0.3550000000000004263, 0.000000000000000000, 0.1189828790955695242 ) ) ;
#16 = DIRECTION ( 'NONE',  ( 1.000000000000000000, 0.000000000000000000, -2.344220913482173924E-15 ) ) ;
#17 = CARTESIAN_POINT ( 'NONE',  ( 1.067980961487340868E-14, 0.000000000000000000, 3.058819045102516121 ) ) ;
#18 = ORIENTED_EDGE ( 'NONE', *, *, #75, .F. ) ;
#19 = EDGE_CURVE ( 'NONE', #209, #209, #113, .T. ) ;
#20 = VERTEX_POINT ( 'NONE', #169 ) ;
#21 = VERTEX_POINT ( 'NONE', #257 ) ;
#22 = AXIS2_PLACEMENT_3D ( 'NONE', #269, #250, #144 ) ;
#23 = COORDINATED_UNIVERSAL_TIME_OFFSET ( 1, 0, .AHEAD. ) ;
#24 = ADVANCED_FACE ( 'NONE', ( #208, #163 ), #143, .F. ) ;
#25 = PERSON_AND_ORGANIZATION ( #265, #26 ) ;
#26 = ORGANIZATION ( 'UNSPECIFIED', 'UNSPECIFIED', '' ) ;
#27 = PERSON_AND_ORGANIZATION ( #265, #26 ) ;
#28 = DIRECTION ( 'NONE',  ( 1.000000000000000000, 0.000000000000000000, -3.491481338843133355E-15 ) ) ;
#29 = CC_DESIGN_DATE_AND_TIME_ASSIGNMENT ( #184, #108, ( #229 ) ) ;
#30 = DIRECTION ( 'NONE',  ( 3.491481338843133355E-15, -0.000000000000000000, 1.000000000000000000 ) ) ;
#31 = CIRCLE ( 'NONE', #63, 1.500000000000000000 ) ;
#32 = LOCAL_TIME ( 7, 46, 8.000000000000000000, #221 ) ;
#33 = AXIS2_PLACEMENT_3D ( 'NONE', #235, #211, #16 ) ;
#34 = CIRCLE ( 'NONE', #22, 0.1849999999999999978 ) ;
#35 = FACE_OUTER_BOUND ( 'NONE', #61, .T. ) ;
#36 = ORIENTED_EDGE ( 'NONE', *, *, #105, .F. ) ;
#37 = DIRECTION ( 'NONE',  ( 3.491481338843133355E-15, -0.000000000000000000, 1.000000000000000000 ) ) ;
#38 = CARTESIAN_POINT ( 'NONE',  ( 0.1850000000000007472, 0.000000000000000000, 0.2171324248578029026 ) ) ;
#39 = ORIENTED_EDGE ( 'NONE', *, *, #105, .T. ) ;
#40 = DIRECTION ( 'NONE',  ( 1.000000000000000000, 0.000000000000000000, -3.491481338843133355E-15 ) ) ;
#41 = APPROVAL_ROLE ( '' ) ;
#42 = AXIS2_PLACEMENT_3D ( 'NONE', #94, #3, #253 ) ;
#43 = DATE_AND_TIME ( #71, #103 ) ;
#44 = MECHANICAL_CONTEXT ( 'NONE', #226, 'mechanical' ) ;
#45 = DIRECTION ( 'NONE',  ( -3.491481338843133355E-15, 0.000000000000000000, -1.000000000000000000 ) ) ;
#46 = EDGE_CURVE ( 'NONE', #1, #1, #153, .T. ) ;
#47 = APPROVAL_DATE_TIME ( #68, #238 ) ;
#48 = DIRECTION ( 'NONE',  ( 3.491481338843133355E-15, -0.000000000000000000, 1.000000000000000000 ) ) ;
#49 = CC_DESIGN_PERSON_AND_ORGANIZATION_ASSIGNMENT ( #25, #203, ( #207 ) ) ;
#50 = AXIS2_PLACEMENT_3D ( 'NONE', #52, #48, #260 ) ;
#51 = APPROVAL_PERSON_ORGANIZATION ( #182, #56, #41 ) ;
#52 = CARTESIAN_POINT ( 'NONE',  ( 0.000000000000000000, 0.000000000000000000, 0.000000000000000000 ) ) ;
#53 = DIRECTION ( 'NONE',  ( 3.491481338843133355E-15, -0.000000000000000000, 1.000000000000000000 ) ) ;
#54 = CLOSED_SHELL ( 'NONE', ( #160, #115, #66, #200, #81, #91, #127, #24, #121, #193 ) ) ;
#55 = LOCAL_TIME ( 7, 46, 8.000000000000000000, #23 ) ;
#56 = APPROVAL ( #264, 'UNSPECIFIED' ) ;
#57 = DIRECTION ( 'NONE',  ( 3.491481338843133355E-15, -0.000000000000000000, 1.000000000000000000 ) ) ;
#58 = FACE_OUTER_BOUND ( 'NONE', #93, .T. ) ;
#59 = EDGE_CURVE ( 'NONE', #79, #79, #31, .T. ) ;
#60 = DIRECTION ( 'NONE',  ( -1.000000000000000000, 0.000000000000000000, 3.474028087893693774E-15 ) ) ;
#61 = EDGE_LOOP ( 'NONE', ( #270 ) ) ;
#62 =( LENGTH_UNIT ( ) NAMED_UNIT ( * ) SI_UNIT ( .MILLI., .METRE. ) );
#63 = AXIS2_PLACEMENT_3D ( 'NONE', #136, #57, #191 ) ;
#64 = CALENDAR_DATE ( 2023, 27, 9 ) ;
#65 = ORIENTED_EDGE ( 'NONE', *, *, #46, .F. ) ;
#66 = ADVANCED_FACE ( 'NONE', ( #109, #248 ), #228, .T. ) ;
#67 = FACE_BOUND ( 'NONE', #214, .T. ) ;
#68 = DATE_AND_TIME ( #5, #262 ) ;
#69 = AXIS2_PLACEMENT_3D ( 'NONE', #162, #87, #70 ) ;
#70 = DIRECTION ( 'NONE',  ( -1.000000000000000000, 0.000000000000000000, 3.491481338843133355E-15 ) ) ;
#71 = CALENDAR_DATE ( 2023, 27, 9 ) ;
#72 = PRODUCT ( '964485', '964485', '', ( #44 ) ) ;
#73 = CARTESIAN_POINT ( 'NONE',  ( 1.067980961487340868E-14, 0.000000000000000000, 3.058819045102516121 ) ) ;
#74 = DIRECTION ( 'NONE',  ( 3.491481338843133355E-15, -0.000000000000000000, 1.000000000000000000 ) ) ;
#75 = EDGE_CURVE ( 'NONE', #119, #119, #82, .T. ) ;
#76 = DIRECTION ( 'NONE',  ( 3.491481338843133355E-15, -0.000000000000000000, 1.000000000000000000 ) ) ;
#77 = CYLINDRICAL_SURFACE ( 'NONE', #42, 1.499999999999998002 ) ;
#78 = FACE_OUTER_BOUND ( 'NONE', #252, .T. ) ;
#79 = VERTEX_POINT ( 'NONE', #172 ) ;
#80 = DIRECTION ( 'NONE',  ( 1.000000000000000000, 0.000000000000000000, -3.959214923859050552E-15 ) ) ;
#81 = ADVANCED_FACE ( 'NONE', ( #263, #116 ), #140, .T. ) ;
#82 = CIRCLE ( 'NONE', #50, 0.1849999999999999700 ) ;
#83 = DATE_TIME_ROLE ( 'classification_date' ) ;
#84 = APPLICATION_PROTOCOL_DEFINITION ( 'international standard', 'config_control_design', 1994, #149 ) ;
#85 = EDGE_LOOP ( 'NONE', ( #6 ) ) ;
#86 = PERSON_AND_ORGANIZATION ( #265, #26 ) ;
#87 = DIRECTION ( 'NONE',  ( -3.491481338843133355E-15, 0.000000000000000000, -1.000000000000000000 ) ) ;
#88 = CALENDAR_DATE ( 2023, 27, 9 ) ;
#89 = DIRECTION ( 'NONE',  ( 3.491481338843133355E-15, -0.000000000000000000, 1.000000000000000000 ) ) ;
#90 = DIRECTION ( 'NONE',  ( 3.491481338843133355E-15, -0.000000000000000000, 1.000000000000000000 ) ) ;
#91 = ADVANCED_FACE ( 'NONE', ( #230, #35 ), #95, .T. ) ;
#92 = DIRECTION ( 'NONE',  ( 1.000000000000000000, 0.000000000000000000, -3.491481338843133355E-15 ) ) ;
#93 = EDGE_LOOP ( 'NONE', ( #170 ) ) ;
#94 = CARTESIAN_POINT ( 'NONE',  ( 1.326762908760390423E-13, 0.000000000000000000, 38.00000000000000000 ) ) ;
#95 = CONICAL_SURFACE ( 'NONE', #186, 1.499999999999996225, 0.7853981633974504994 ) ;
#96 = CIRCLE ( 'NONE', #122, 0.2190741737109298537 ) ;
#97 = CC_DESIGN_PERSON_AND_ORGANIZATION_ASSIGNMENT ( #27, #110, ( #207 ) ) ;
#98 = EDGE_LOOP ( 'NONE', ( #256 ) ) ;
#99 = CARTESIAN_POINT ( 'NONE',  ( 4.154265020040140758E-16, 0.000000000000000000, 0.1189828790955707594 ) ) ;
#100 = ORIENTED_EDGE ( 'NONE', *, *, #273, .F. ) ;
#101 = VERTEX_POINT ( 'NONE', #195 ) ;
#102 = APPROVAL_PERSON_ORGANIZATION ( #242, #4, #178 ) ;
#103 = LOCAL_TIME ( 7, 46, 8.000000000000000000, #157 ) ;
#104 = EDGE_LOOP ( 'NONE', ( #156 ) ) ;
#105 = EDGE_CURVE ( 'NONE', #192, #192, #34, .T. ) ;
#106 = PERSON_AND_ORGANIZATION ( #265, #26 ) ;
#107 = COORDINATED_UNIVERSAL_TIME_OFFSET ( 1, 0, .AHEAD. ) ;
#108 = DATE_TIME_ROLE ( 'creation_date' ) ;
#109 = FACE_OUTER_BOUND ( 'NONE', #145, .T. ) ;
#110 = PERSON_AND_ORGANIZATION_ROLE ( 'creator' ) ;
#111 = FACE_BOUND ( 'NONE', #245, .T. ) ;
#112 = FACE_OUTER_BOUND ( 'NONE', #243, .T. ) ;
#113 = CIRCLE ( 'NONE', #120, 1.199999999999993072 ) ;
#114 = PRODUCT_RELATED_PRODUCT_CATEGORY ( 'detail', '', ( #72 ) ) ;
#115 = ADVANCED_FACE ( 'NONE', ( #202, #67 ), #249, .T. ) ;
#116 = FACE_OUTER_BOUND ( 'NONE', #142, .T. ) ;
#117 = DIRECTION ( 'NONE',  ( -1.000000000000000000, 0.000000000000000000, 4.625929269271497155E-15 ) ) ;
#118 = CARTESIAN_POINT ( 'NONE',  ( 0.000000000000000000, 0.000000000000000000, 0.000000000000000000 ) ) ;
#119 = VERTEX_POINT ( 'NONE', #255 ) ;
#120 = AXIS2_PLACEMENT_3D ( 'NONE', #159, #74, #189 ) ;
#121 = ADVANCED_FACE ( 'NONE', ( #112, #111 ), #129, .T. ) ;
#122 = AXIS2_PLACEMENT_3D ( 'NONE', #17, #194, #80 ) ;
#123 = DIRECTION ( 'NONE',  ( 1.000000000000000000, 0.000000000000000000, -3.474028087893693774E-15 ) ) ;
#124 = ORIENTED_EDGE ( 'NONE', *, *, #75, .T. ) ;
#125 = FACE_BOUND ( 'NONE', #14, .T. ) ;
#126 = ORIENTED_EDGE ( 'NONE', *, *, #59, .F. ) ;
#127 = ADVANCED_FACE ( 'NONE', ( #204 ), #8, .F. ) ;
#128 = FACE_OUTER_BOUND ( 'NONE', #246, .T. ) ;
#129 = CONICAL_SURFACE ( 'NONE', #231, 0.2190741737109298537, 0.2617993877991429685 ) ;
#130 = AXIS2_PLACEMENT_3D ( 'NONE', #236, #147, #152 ) ;
#131 = COORDINATED_UNIVERSAL_TIME_OFFSET ( 1, 0, .AHEAD. ) ;
#132 = DIRECTION ( 'NONE',  ( 1.000000000000000000, 0.000000000000000000, 0.000000000000000000 ) ) ;
#133 = PERSON_AND_ORGANIZATION ( #265, #26 ) ;
#134 = APPROVAL_STATUS ( 'not_yet_approved' ) ;
#135 = CARTESIAN_POINT ( 'NONE',  ( 0.000000000000000000, 0.000000000000000000, 0.000000000000000000 ) ) ;
#136 = CARTESIAN_POINT ( 'NONE',  ( 2.737076724886685193E-14, 0.000000000000000000, 7.839299309540595395 ) ) ;
#137 = AXIS2_PLACEMENT_3D ( 'NONE', #135, #222, #28 ) ;
#138 = CC_DESIGN_APPROVAL ( #238, ( #174 ) ) ;
#139 = CC_DESIGN_APPROVAL ( #56, ( #207 ) ) ;
#140 = CYLINDRICAL_SURFACE ( 'NONE', #216, 0.1849999999999999145 ) ;
#141 = AXIS2_PLACEMENT_3D ( 'NONE', #185, #30, #92 ) ;
#142 = EDGE_LOOP ( 'NONE', ( #39 ) ) ;
#143 = TOROIDAL_SURFACE ( 'NONE', #141, 1.184999999999999831, 1.000000000000000000 ) ;
#144 = DIRECTION ( 'NONE',  ( 1.000000000000000000, 0.000000000000000000, -3.516331370223257730E-15 ) ) ;
#145 = EDGE_LOOP ( 'NONE', ( #65 ) ) ;
#146 = CC_DESIGN_PERSON_AND_ORGANIZATION_ASSIGNMENT ( #106, #188, ( #229 ) ) ;
#147 = DIRECTION ( 'NONE',  ( 3.491481338843133355E-15, -0.000000000000000000, 1.000000000000000000 ) ) ;
#148 = AXIS2_PLACEMENT_3D ( 'NONE', #275, #239, #132 ) ;
#149 = APPLICATION_CONTEXT ( 'configuration controlled 3d designs of mechanical parts and assemblies' ) ;
#150 = CARTESIAN_POINT ( 'NONE',  ( 1.200000000000125855, 0.000000000000000000, 37.99999999999999289 ) ) ;
#151 = PLANE ( 'NONE',  #218 ) ;
#152 = DIRECTION ( 'NONE',  ( 1.000000000000000000, 0.000000000000000000, -4.625929269271497155E-15 ) ) ;
#153 = CIRCLE ( 'NONE', #210, 0.3549999999999999822 ) ;
#154 = CIRCLE ( 'NONE', #33, 0.1849999999999998312 ) ;
#155 = CALENDAR_DATE ( 2023, 27, 9 ) ;
#156 = ORIENTED_EDGE ( 'NONE', *, *, #227, .T. ) ;
#157 = COORDINATED_UNIVERSAL_TIME_OFFSET ( 1, 0, .AHEAD. ) ;
#158 = CARTESIAN_POINT ( 'NONE',  ( 1.326762908760390423E-13, 0.000000000000000000, 38.00000000000000000 ) ) ;
#159 = CARTESIAN_POINT ( 'NONE',  ( 1.326762908760390423E-13, 0.000000000000000000, 38.00000000000000000 ) ) ;
#160 = ADVANCED_FACE ( 'NONE', ( #244 ), #151, .F. ) ;
#161 = DESIGN_CONTEXT ( 'detailed design', #149, 'design' ) ;
#162 = CARTESIAN_POINT ( 'NONE',  ( 1.326762908760390423E-13, 1.199999999999993072, 38.00000000000000000 ) ) ;
#163 = FACE_OUTER_BOUND ( 'NONE', #104, .T. ) ;
#164 = CARTESIAN_POINT ( 'NONE',  ( 1.326762908760390423E-13, 0.000000000000000000, 38.00000000000000000 ) ) ;
#165 = CC_DESIGN_APPROVAL ( #4, ( #229 ) ) ;
#166 = CONICAL_SURFACE ( 'NONE', #272, 0.3549999999999999822, 1.047197551196613619 ) ;
#167 = ORIENTED_EDGE ( 'NONE', *, *, #227, .F. ) ;
#168 = MANIFOLD_SOLID_BREP ( 'Corps-Déplacer/Copier1', #54 ) ;
#169 = CARTESIAN_POINT ( 'NONE',  ( 0.3550000000000003153, 0.000000000000000000, 0.09814954576223848537 ) ) ;
#170 = ORIENTED_EDGE ( 'NONE', *, *, #46, .T. ) ;
#171 = CARTESIAN_POINT ( 'NONE',  ( 3.426873074447901345E-16, 0.000000000000000000, 0.09814954576223972049 ) ) ;
#172 = CARTESIAN_POINT ( 'NONE',  ( 1.500000000000027311, 0.000000000000000000, 7.839299309540590066 ) ) ;
#173 = ORIENTED_EDGE ( 'NONE', *, *, #180, .F. ) ;
#174 = SECURITY_CLASSIFICATION ( '', '', #181 ) ;
#175 =( NAMED_UNIT ( * ) PLANE_ANGLE_UNIT ( ) SI_UNIT ( $, .RADIAN. ) );
#176 = ORIENTED_EDGE ( 'NONE', *, *, #273, .T. ) ;
#177 =( NAMED_UNIT ( * ) SI_UNIT ( $, .STERADIAN. ) SOLID_ANGLE_UNIT ( ) );
#178 = APPROVAL_ROLE ( '' ) ;
#179 = AXIS2_PLACEMENT_3D ( 'NONE', #164, #53, #225 ) ;
#180 = EDGE_CURVE ( 'NONE', #21, #21, #251, .T. ) ;
#181 = SECURITY_CLASSIFICATION_LEVEL ( 'unclassified' ) ;
#182 = PERSON_AND_ORGANIZATION ( #265, #26 ) ;
#183 = EDGE_LOOP ( 'NONE', ( #18 ) ) ;
#184 = DATE_AND_TIME ( #88, #55 ) ;
#185 = CARTESIAN_POINT ( 'NONE',  ( 9.776147748760773395E-15, 0.000000000000000000, 2.799999999999999822 ) ) ;
#186 = AXIS2_PLACEMENT_3D ( 'NONE', #12, #45, #117 ) ;
#187 = APPROVAL_PERSON_ORGANIZATION ( #133, #238, #201 ) ;
#188 = PERSON_AND_ORGANIZATION_ROLE ( 'creator' ) ;
#189 = DIRECTION ( 'NONE',  ( 1.000000000000000000, 0.000000000000000000, -5.782411586589390376E-15 ) ) ;
#190 = DIRECTION ( 'NONE',  ( 1.000000000000000000, 0.000000000000000000, -3.474028087893693774E-15 ) ) ;
#191 = DIRECTION ( 'NONE',  ( 1.000000000000000000, 0.000000000000000000, -3.469446951953614189E-15 ) ) ;
#192 = VERTEX_POINT ( 'NONE', #38 ) ;
#193 = ADVANCED_FACE ( 'NONE', ( #78, #128 ), #77, .T. ) ;
#194 = DIRECTION ( 'NONE',  ( 3.491481338843133355E-15, -0.000000000000000000, 1.000000000000000000 ) ) ;
#195 = CARTESIAN_POINT ( 'NONE',  ( 0.2190741737109405396, 0.000000000000000000, 3.058819045102515233 ) ) ;
#196 = CIRCLE ( 'NONE', #10, 0.3549999999999999822 ) ;
#197 =( GEOMETRIC_REPRESENTATION_CONTEXT ( 3 ) GLOBAL_UNCERTAINTY_ASSIGNED_CONTEXT ( ( #254 ) ) GLOBAL_UNIT_ASSIGNED_CONTEXT ( ( #62, #175, #177 ) ) REPRESENTATION_CONTEXT ( 'NONE', 'WORKASPACE' ) );
#198 = EDGE_LOOP ( 'NONE', ( #167 ) ) ;
#199 = APPROVAL_DATE_TIME ( #261, #56 ) ;
#200 = ADVANCED_FACE ( 'NONE', ( #125, #58 ), #166, .T. ) ;
#201 = APPROVAL_ROLE ( '' ) ;
#202 = FACE_OUTER_BOUND ( 'NONE', #13, .T. ) ;
#203 = PERSON_AND_ORGANIZATION_ROLE ( 'design_supplier' ) ;
#204 = FACE_OUTER_BOUND ( 'NONE', #85, .T. ) ;
#205 = PERSON_AND_ORGANIZATION_ROLE ( 'design_owner' ) ;
#206 = CARTESIAN_POINT ( 'NONE',  ( 4.154265020040140758E-16, 0.000000000000000000, 0.1189828790955707594 ) ) ;
#207 = PRODUCT_DEFINITION_FORMATION_WITH_SPECIFIED_SOURCE ( 'ANY', '', #72, .NOT_KNOWN. ) ;
#208 = FACE_OUTER_BOUND ( 'NONE', #212, .T. ) ;
#209 = VERTEX_POINT ( 'NONE', #150 ) ;
#210 = AXIS2_PLACEMENT_3D ( 'NONE', #206, #90, #190 ) ;
#211 = DIRECTION ( 'NONE',  ( 3.491481338843133355E-15, -0.000000000000000000, 1.000000000000000000 ) ) ;
#212 = EDGE_LOOP ( 'NONE', ( #100 ) ) ;
#213 = CARTESIAN_POINT ( 'NONE',  ( 0.1850000000000096290, 0.000000000000000000, 2.799999999999996714 ) ) ;
#214 = EDGE_LOOP ( 'NONE', ( #124 ) ) ;
#215 = DIRECTION ( 'NONE',  ( -3.491481338843133355E-15, 0.000000000000000000, -1.000000000000000000 ) ) ;
#216 = AXIS2_PLACEMENT_3D ( 'NONE', #158, #76, #268 ) ;
#217 = PRODUCT_DEFINITION_SHAPE ( 'NONE', 'NONE',  #229 ) ;
#218 = AXIS2_PLACEMENT_3D ( 'NONE', #118, #237, #40 ) ;
#219 = SHAPE_DEFINITION_REPRESENTATION ( #217, #220 ) ;
#220 = ADVANCED_BREP_SHAPE_REPRESENTATION ( '964485', ( #168, #148 ), #197 ) ;
#221 = COORDINATED_UNIVERSAL_TIME_OFFSET ( 1, 0, .AHEAD. ) ;
#222 = DIRECTION ( 'NONE',  ( 3.491481338843133355E-15, -0.000000000000000000, 1.000000000000000000 ) ) ;
#223 = ORIENTED_EDGE ( 'NONE', *, *, #267, .T. ) ;
#224 = APPROVAL_DATE_TIME ( #9, #4 ) ;
#225 = DIRECTION ( 'NONE',  ( 1.000000000000000000, 0.000000000000000000, 0.000000000000000000 ) ) ;
#226 = APPLICATION_CONTEXT ( 'configuration controlled 3d designs of mechanical parts and assemblies' ) ;
#227 = EDGE_CURVE ( 'NONE', #271, #271, #154, .T. ) ;
#228 = CYLINDRICAL_SURFACE ( 'NONE', #179, 0.3549999999999999822 ) ;
#229 = PRODUCT_DEFINITION ( 'UNKNOWN', '', #207, #161 ) ;
#230 = FACE_BOUND ( 'NONE', #98, .T. ) ;
#231 = AXIS2_PLACEMENT_3D ( 'NONE', #73, #89, #266 ) ;
#232 = ORIENTED_EDGE ( 'NONE', *, *, #59, .T. ) ;
#233 = ORIENTED_EDGE ( 'NONE', *, *, #267, .F. ) ;
#234 = APPLICATION_PROTOCOL_DEFINITION ( 'international standard', 'config_control_design', 1994, #226 ) ;
#235 = CARTESIAN_POINT ( 'NONE',  ( 9.776147748760762351E-15, 0.000000000000000000, 2.799999999999997158 ) ) ;
#236 = CARTESIAN_POINT ( 'NONE',  ( 1.316288464743861212E-13, 0.000000000000000000, 37.69999999999999574 ) ) ;
#237 = DIRECTION ( 'NONE',  ( 3.491481338843133355E-15, -0.000000000000000000, 1.000000000000000000 ) ) ;
#238 = APPROVAL ( #259, 'UNSPECIFIED' ) ;
#239 = DIRECTION ( 'NONE',  ( 0.000000000000000000, 0.000000000000000000, 1.000000000000000000 ) ) ;
#240 = CC_DESIGN_SECURITY_CLASSIFICATION ( #174, ( #207 ) ) ;
#241 = PERSON_AND_ORGANIZATION ( #265, #26 ) ;
#242 = PERSON_AND_ORGANIZATION ( #265, #26 ) ;
#243 = EDGE_LOOP ( 'NONE', ( #126 ) ) ;
#244 = FACE_OUTER_BOUND ( 'NONE', #183, .T. ) ;
#245 = EDGE_LOOP ( 'NONE', ( #176 ) ) ;
#246 = EDGE_LOOP ( 'NONE', ( #232 ) ) ;
#247 = CC_DESIGN_PERSON_AND_ORGANIZATION_ASSIGNMENT ( #86, #205, ( #72 ) ) ;
#248 = FACE_OUTER_BOUND ( 'NONE', #274, .T. ) ;
#249 = CONICAL_SURFACE ( 'NONE', #137, 0.1849999999999999700, 1.047197551196583198 ) ;
#250 = DIRECTION ( 'NONE',  ( 3.491481338843133355E-15, -0.000000000000000000, 1.000000000000000000 ) ) ;
#251 = CIRCLE ( 'NONE', #130, 1.499999999999996225 ) ;
#252 = EDGE_LOOP ( 'NONE', ( #173 ) ) ;
#253 = DIRECTION ( 'NONE',  ( 1.000000000000000000, 0.000000000000000000, -4.625929269271491633E-15 ) ) ;
#254 = UNCERTAINTY_MEASURE_WITH_UNIT (LENGTH_MEASURE( 1.000000000000000082E-05 ), #62, 'distance_accuracy_value', 'NONE');
#255 = CARTESIAN_POINT ( 'NONE',  ( 0.1849999999999999700, 0.000000000000000000, -6.459240476859795918E-16 ) ) ;
#256 = ORIENTED_EDGE ( 'NONE', *, *, #19, .F. ) ;
#257 = CARTESIAN_POINT ( 'NONE',  ( 1.500000000000127676, 0.000000000000000000, 37.69999999999998863 ) ) ;
#258 = CC_DESIGN_PERSON_AND_ORGANIZATION_ASSIGNMENT ( #241, #7, ( #174 ) ) ;
#259 = APPROVAL_STATUS ( 'not_yet_approved' ) ;
#260 = DIRECTION ( 'NONE',  ( 1.000000000000000000, 0.000000000000000000, -3.491481338843133355E-15 ) ) ;
#261 = DATE_AND_TIME ( #64, #32 ) ;
#262 = LOCAL_TIME ( 7, 46, 8.000000000000000000, #131 ) ;
#263 = FACE_OUTER_BOUND ( 'NONE', #198, .T. ) ;
#264 = APPROVAL_STATUS ( 'not_yet_approved' ) ;
#265 = PERSON ( 'UNSPECIFIED', 'UNSPECIFIED', 'UNSPECIFIED', ('UNSPECIFIED'), ('UNSPECIFIED'), ('UNSPECIFIED') ) ;
#266 = DIRECTION ( 'NONE',  ( 1.000000000000000000, 0.000000000000000000, -3.959214923859050552E-15 ) ) ;
#267 = EDGE_CURVE ( 'NONE', #20, #20, #196, .T. ) ;
#268 = DIRECTION ( 'NONE',  ( 1.000000000000000000, 0.000000000000000000, 0.000000000000000000 ) ) ;
#269 = CARTESIAN_POINT ( 'NONE',  ( 7.581138094487799036E-16, 0.000000000000000000, 0.2171324248578035410 ) ) ;
#270 = ORIENTED_EDGE ( 'NONE', *, *, #180, .T. ) ;
#271 = VERTEX_POINT ( 'NONE', #213 ) ;
#272 = AXIS2_PLACEMENT_3D ( 'NONE', #99, #215, #60 ) ;
#273 = EDGE_CURVE ( 'NONE', #101, #101, #96, .T. ) ;
#274 = EDGE_LOOP ( 'NONE', ( #223 ) ) ;
#275 = CARTESIAN_POINT ( 'NONE',  ( 0.000000000000000000, 0.000000000000000000, 0.000000000000000000 ) ) ;
ENDSEC;
END-ISO-10303-21;
