ISO-10303-21;
HEADER;
FILE_DESCRIPTION (( 'STEP AP203' ),
    '1' );
FILE_NAME ('964328.step',
    '2021-11-08T12:44:21',
    ( '' ),
    ( '' ),
    'SwSTEP 2.0',
    'SolidWorks 2019',
    '' );
FILE_SCHEMA (( 'CONFIG_CONTROL_DESIGN' ));
ENDSEC;

DATA;
#1 = AXIS2_PLACEMENT_3D ( 'NONE', #150, #167, #44 ) ;
#2 = ADVANCED_FACE ( 'NONE', ( #51 ), #114, .F. ) ;
#3 = EDGE_LOOP ( 'NONE', ( #42 ) ) ;
#4 = APPROVAL_PERSON_ORGANIZATION ( #139, #90, #207 ) ;
#5 = DIRECTION ( 'NONE',  ( 0.0000000000000000000, 1.000000000000000000, 0.0000000000000000000 ) ) ;
#6 = DIRECTION ( 'NONE',  ( 3.491481338843133355E-15, -1.225232690407966814E-16, 1.000000000000000000 ) ) ;
#7 = DATE_AND_TIME ( #165, #123 ) ;
#8 = DIRECTION ( 'NONE',  ( -3.491481338843133355E-15, 1.224646799147353207E-16, -1.000000000000000000 ) ) ;
#9 = DIRECTION ( 'NONE',  ( -3.491481338843133355E-15, 1.224646799147353207E-16, -1.000000000000000000 ) ) ;
#10 = DIRECTION ( 'NONE',  ( 3.491481338843133355E-15, -1.225232690407966814E-16, 1.000000000000000000 ) ) ;
#11 = CARTESIAN_POINT ( 'NONE',  ( 1.779983795594030850E-14, -1.999999999999997113, 5.098076211353346210 ) ) ;
#12 = CC_DESIGN_APPROVAL ( #130, ( #80 ) ) ;
#13 = CIRCLE ( 'NONE', #43, 0.4999999999999990563 ) ;
#14 = PERSON_AND_ORGANIZATION_ROLE ( 'classification_officer' ) ;
#15 = APPROVAL_PERSON_ORGANIZATION ( #97, #130, #29 ) ;
#16 = PERSON_AND_ORGANIZATION ( #74, #162 ) ;
#17 = APPLICATION_PROTOCOL_DEFINITION ( 'international standard', 'config_control_design', 1994, #205 ) ;
#18 = PLANE ( 'NONE',  #61 ) ;
#19 = APPROVAL_PERSON_ORGANIZATION ( #71, #98, #88 ) ;
#20 = ORIENTED_EDGE ( 'NONE', *, *, #194, .F. ) ;
#21 = EDGE_LOOP ( 'NONE', ( #38 ) ) ;
#22 = EDGE_CURVE ( 'NONE', #132, #132, #13, .T. ) ;
#23 = COORDINATED_UNIVERSAL_TIME_OFFSET ( 1, 0, .AHEAD. ) ;
#24 = CARTESIAN_POINT ( 'NONE',  ( 8.728703347107825500E-15, -3.063081726019915063E-16, 2.499999999999997780 ) ) ;
#25 = CARTESIAN_POINT ( 'NONE',  ( 8.728703347107825500E-15, -3.063081726019915063E-16, 2.499999999999997780 ) ) ;
#26 = AXIS2_PLACEMENT_3D ( 'NONE', #108, #76, #141 ) ;
#27 = CLOSED_SHELL ( 'NONE', ( #50, #168, #2, #84, #66 ) ) ;
#28 = CARTESIAN_POINT ( 'NONE',  ( 1.222018468595096801E-13, -4.286263797015736496E-15, 35.00000000000000000 ) ) ;
#29 = APPROVAL_ROLE ( '' ) ;
#30 = DIRECTION ( 'NONE',  ( 4.275831445896958607E-31, 1.000000000000000000, 1.224646799147353207E-16 ) ) ;
#31 =( LENGTH_UNIT ( ) NAMED_UNIT ( * ) SI_UNIT ( .MILLI., .METRE. ) );
#32 = EDGE_CURVE ( 'NONE', #48, #48, #171, .T. ) ;
#33 = MECHANICAL_CONTEXT ( 'NONE', #191, 'mechanical' ) ;
#34 = PERSON_AND_ORGANIZATION ( #74, #162 ) ;
#35 = PERSON_AND_ORGANIZATION ( #74, #162 ) ;
#36 = CONICAL_SURFACE ( 'NONE', #77, 1.999999999999996669, 0.5235987755982927094 ) ;
#37 = DIRECTION ( 'NONE',  ( 3.491481338843133355E-15, -1.225232690407966814E-16, 1.000000000000000000 ) ) ;
#38 = ORIENTED_EDGE ( 'NONE', *, *, #194, .T. ) ;
#39 = DESIGN_CONTEXT ( 'detailed design', #205, 'design' ) ;
#40 = ORIENTED_EDGE ( 'NONE', *, *, #106, .T. ) ;
#41 = PERSON_AND_ORGANIZATION_ROLE ( 'design_supplier' ) ;
#42 = ORIENTED_EDGE ( 'NONE', *, *, #32, .T. ) ;
#43 = AXIS2_PLACEMENT_3D ( 'NONE', #25, #10, #185 ) ;
#44 = DIRECTION ( 'NONE',  ( -4.275831445896958607E-31, -1.000000000000000000, -1.224646799147353207E-16 ) ) ;
#45 = VERTEX_POINT ( 'NONE', #96 ) ;
#46 = CARTESIAN_POINT ( 'NONE',  ( 0.0000000000000000000, 0.0000000000000000000, 0.0000000000000000000 ) ) ;
#47 = LOCAL_TIME ( 13, 44, 21.00000000000000000, #55 ) ;
#48 = VERTEX_POINT ( 'NONE', #11 ) ;
#49 = DIRECTION ( 'NONE',  ( -3.491481338843133355E-15, 1.224646799147353207E-16, -1.000000000000000000 ) ) ;
#50 = ADVANCED_FACE ( 'NONE', ( #166, #64 ), #131, .T. ) ;
#51 = FACE_OUTER_BOUND ( 'NONE', #56, .T. ) ;
#52 = DIRECTION ( 'NONE',  ( 1.000000000000000000, 0.0000000000000000000, 0.0000000000000000000 ) ) ;
#53 = CC_DESIGN_DATE_AND_TIME_ASSIGNMENT ( #122, #154, ( #143 ) ) ;
#54 = CIRCLE ( 'NONE', #220, 1.599999999999998312 ) ;
#55 = COORDINATED_UNIVERSAL_TIME_OFFSET ( 1, 0, .AHEAD. ) ;
#56 = EDGE_LOOP ( 'NONE', ( #93 ) ) ;
#57 = CIRCLE ( 'NONE', #26, 1.999999999999998224 ) ;
#58 = ORIENTED_EDGE ( 'NONE', *, *, #106, .F. ) ;
#59 = EDGE_LOOP ( 'NONE', ( #94 ) ) ;
#60 = CALENDAR_DATE ( 2021, 8, 11 ) ;
#61 = AXIS2_PLACEMENT_3D ( 'NONE', #91, #99, #68 ) ;
#62 = APPLICATION_PROTOCOL_DEFINITION ( 'international standard', 'config_control_design', 1994, #191 ) ;
#63 = EDGE_LOOP ( 'NONE', ( #40 ) ) ;
#64 = FACE_OUTER_BOUND ( 'NONE', #3, .T. ) ;
#65 = CARTESIAN_POINT ( 'NONE',  ( 8.728703347107825500E-15, -0.4999999999999993339, 2.499999999999997780 ) ) ;
#66 = ADVANCED_FACE ( 'NONE', ( #137 ), #177, .F. ) ;
#67 = AXIS2_PLACEMENT_3D ( 'NONE', #115, #186, #52 ) ;
#68 = DIRECTION ( 'NONE',  ( -4.275831445896958607E-31, -1.000000000000000000, -1.224646799147353207E-16 ) ) ;
#69 = CC_DESIGN_PERSON_AND_ORGANIZATION_ASSIGNMENT ( #16, #14, ( #143 ) ) ;
#70 = CARTESIAN_POINT ( 'NONE',  ( -4.277877074299968747E-31, -0.4999999999999987232, -1.225232690407963116E-16 ) ) ;
#71 = PERSON_AND_ORGANIZATION ( #74, #162 ) ;
#72 = AXIS2_PLACEMENT_3D ( 'NONE', #85, #102, #161 ) ;
#73 = CALENDAR_DATE ( 2021, 8, 11 ) ;
#74 = PERSON ( 'UNSPECIFIED', 'UNSPECIFIED', 'UNSPECIFIED', ('UNSPECIFIED'), ('UNSPECIFIED'), ('UNSPECIFIED') ) ;
#75 = PRODUCT_DEFINITION ( 'UNKNOWN', '', #80, #39 ) ;
#76 = DIRECTION ( 'NONE',  ( -3.491481338843133355E-15, 1.224646799147353207E-16, -1.000000000000000000 ) ) ;
#77 = AXIS2_PLACEMENT_3D ( 'NONE', #195, #37, #222 ) ;
#78 = PERSON_AND_ORGANIZATION ( #74, #162 ) ;
#79 = CARTESIAN_POINT ( 'NONE',  ( 1.222018468595096801E-13, 1.199807826129478286E-32, 35.00000000000000000 ) ) ;
#80 = PRODUCT_DEFINITION_FORMATION_WITH_SPECIFIED_SOURCE ( 'ANY', '', #213, .NOT_KNOWN. ) ;
#81 = CARTESIAN_POINT ( 'NONE',  ( 8.728703347107825500E-15, -0.4999999999999993339, 2.499999999999997780 ) ) ;
#82 = DIRECTION ( 'NONE',  ( 3.491481338843133355E-15, -1.225232690407966814E-16, 1.000000000000000000 ) ) ;
#83 = CARTESIAN_POINT ( 'NONE',  ( 1.208052543239724267E-13, 1.999999999999994005, 34.60000000000000853 ) ) ;
#84 = ADVANCED_FACE ( 'NONE', ( #124, #157 ), #36, .T. ) ;
#85 = CARTESIAN_POINT ( 'NONE',  ( -2.025941305359930978E-30, 0.0000000000000000000, -5.802526517387047816E-16 ) ) ;
#86 = APPROVAL_STATUS ( 'not_yet_approved' ) ;
#87 = AXIS2_PLACEMENT_3D ( 'NONE', #79, #119, #30 ) ;
#88 = APPROVAL_ROLE ( '' ) ;
#89 = APPROVAL_DATE_TIME ( #170, #98 ) ;
#90 = APPROVAL ( #138, 'UNSPECIFIED' ) ;
#91 = CARTESIAN_POINT ( 'NONE',  ( -8.551700045867646674E-31, 2.999532597218505004E-32, -2.449304239644358043E-16 ) ) ;
#92 = ORIENTED_EDGE ( 'NONE', *, *, #22, .F. ) ;
#93 = ORIENTED_EDGE ( 'NONE', *, *, #189, .F. ) ;
#94 = ORIENTED_EDGE ( 'NONE', *, *, #32, .F. ) ;
#95 = ORIENTED_EDGE ( 'NONE', *, *, #178, .T. ) ;
#96 = CARTESIAN_POINT ( 'NONE',  ( 1.222018468595096801E-13, 1.599999999999994094, 35.00000000000000000 ) ) ;
#97 = PERSON_AND_ORGANIZATION ( #74, #162 ) ;
#98 = APPROVAL ( #86, 'UNSPECIFIED' ) ;
#99 = DIRECTION ( 'NONE',  ( 3.491481338843133355E-15, -1.224646799147353207E-16, 1.000000000000000000 ) ) ;
#100 = CONICAL_SURFACE ( 'NONE', #182, 1.599999999999998312, 0.7853981633974512766 ) ;
#101 = DATE_AND_TIME ( #60, #192 ) ;
#102 = DIRECTION ( 'NONE',  ( 3.491481338843133355E-15, -1.225232690407966814E-16, 1.000000000000000000 ) ) ;
#103 = CYLINDRICAL_SURFACE ( 'NONE', #72, 0.4999999999999989453 ) ;
#104 = COORDINATED_UNIVERSAL_TIME_OFFSET ( 1, 0, .AHEAD. ) ;
#105 = CARTESIAN_POINT ( 'NONE',  ( 8.728703347107828655E-15, 1.499759782661853229E-32, 2.499999999999998668 ) ) ;
#106 = EDGE_CURVE ( 'NONE', #219, #219, #57, .T. ) ;
#107 = CALENDAR_DATE ( 2021, 8, 11 ) ;
#108 = CARTESIAN_POINT ( 'NONE',  ( 1.208052543239724267E-13, -4.237277925049843068E-15, 34.60000000000000853 ) ) ;
#109 = CC_DESIGN_SECURITY_CLASSIFICATION ( #143, ( #80 ) ) ;
#110 = ORIENTED_EDGE ( 'NONE', *, *, #22, .T. ) ;
#111 = ADVANCED_FACE ( 'NONE', ( #179 ), #18, .F. ) ;
#112 = CC_DESIGN_PERSON_AND_ORGANIZATION_ASSIGNMENT ( #78, #160, ( #80 ) ) ;
#113 = COORDINATED_UNIVERSAL_TIME_OFFSET ( 1, 0, .AHEAD. ) ;
#114 = PLANE ( 'NONE',  #87 ) ;
#115 = CARTESIAN_POINT ( 'NONE',  ( 0.0000000000000000000, 0.0000000000000000000, 0.0000000000000000000 ) ) ;
#116 = VERTEX_POINT ( 'NONE', #81 ) ;
#117 = APPROVAL_STATUS ( 'not_yet_approved' ) ;
#118 = VERTEX_POINT ( 'NONE', #70 ) ;
#119 = DIRECTION ( 'NONE',  ( -3.491481338843133355E-15, 1.224646799147353207E-16, -1.000000000000000000 ) ) ;
#120 = PERSON_AND_ORGANIZATION_ROLE ( 'creator' ) ;
#121 = AXIS2_PLACEMENT_3D ( 'NONE', #24, #6, #134 ) ;
#122 = DATE_AND_TIME ( #73, #47 ) ;
#123 = LOCAL_TIME ( 13, 44, 21.00000000000000000, #23 ) ;
#124 = FACE_BOUND ( 'NONE', #21, .T. ) ;
#125 = EDGE_LOOP ( 'NONE', ( #212 ) ) ;
#126 = AXIS2_PLACEMENT_3D ( 'NONE', #46, #8, #149 ) ;
#127 = EDGE_LOOP ( 'NONE', ( #92 ) ) ;
#128 = CC_DESIGN_PERSON_AND_ORGANIZATION_ASSIGNMENT ( #35, #173, ( #213 ) ) ;
#129 = PERSON_AND_ORGANIZATION ( #74, #162 ) ;
#130 = APPROVAL ( #117, 'UNSPECIFIED' ) ;
#131 = CYLINDRICAL_SURFACE ( 'NONE', #126, 1.999999999999996669 ) ;
#132 = VERTEX_POINT ( 'NONE', #65 ) ;
#133 = FACE_OUTER_BOUND ( 'NONE', #127, .T. ) ;
#134 = DIRECTION ( 'NONE',  ( 0.0000000000000000000, -1.000000000000000000, 0.0000000000000000000 ) ) ;
#135 = CC_DESIGN_DATE_AND_TIME_ASSIGNMENT ( #101, #184, ( #75 ) ) ;
#136 = SHAPE_DEFINITION_REPRESENTATION ( #198, #206 ) ;
#137 = FACE_OUTER_BOUND ( 'NONE', #223, .T. ) ;
#138 = APPROVAL_STATUS ( 'not_yet_approved' ) ;
#139 = PERSON_AND_ORGANIZATION ( #74, #162 ) ;
#140 = AXIS2_PLACEMENT_3D ( 'NONE', #163, #82, #216 ) ;
#141 = DIRECTION ( 'NONE',  ( 0.0000000000000000000, 1.000000000000000000, 0.0000000000000000000 ) ) ;
#142 = EDGE_LOOP ( 'NONE', ( #110 ) ) ;
#143 = SECURITY_CLASSIFICATION ( '', '', #221 ) ;
#144 = ADVANCED_FACE ( 'NONE', ( #214, #133 ), #103, .T. ) ;
#145 = PRODUCT_RELATED_PRODUCT_CATEGORY ( 'detail', '', ( #213 ) ) ;
#146 = CC_DESIGN_APPROVAL ( #98, ( #143 ) ) ;
#147 = PLANE ( 'NONE',  #1 ) ;
#148 = APPROVAL_DATE_TIME ( #7, #130 ) ;
#149 = DIRECTION ( 'NONE',  ( 4.275831445896958607E-31, 1.000000000000000000, 1.224646799147353207E-16 ) ) ;
#150 = CARTESIAN_POINT ( 'NONE',  ( 8.728703347107828655E-15, 1.499759782661853229E-32, 2.499999999999998668 ) ) ;
#151 = AXIS2_PLACEMENT_3D ( 'NONE', #105, #174, #204 ) ;
#152 = ADVANCED_FACE ( 'NONE', ( #199 ), #147, .T. ) ;
#153 = FACE_BOUND ( 'NONE', #196, .T. ) ;
#154 = DATE_TIME_ROLE ( 'classification_date' ) ;
#155 = CIRCLE ( 'NONE', #187, 0.4999999999999987232 ) ;
#156 = APPROVAL_DATE_TIME ( #193, #90 ) ;
#157 = FACE_OUTER_BOUND ( 'NONE', #59, .T. ) ;
#158 = UNCERTAINTY_MEASURE_WITH_UNIT (LENGTH_MEASURE( 1.000000000000000082E-05 ), #31, 'distance_accuracy_value', 'NONE');
#159 = CIRCLE ( 'NONE', #121, 0.4999999999999990563 ) ;
#160 = PERSON_AND_ORGANIZATION_ROLE ( 'creator' ) ;
#161 = DIRECTION ( 'NONE',  ( -4.277877074299979256E-31, -1.000000000000000000, -1.225232690407967060E-16 ) ) ;
#162 = ORGANIZATION ( 'UNSPECIFIED', 'UNSPECIFIED', '' ) ;
#163 = CARTESIAN_POINT ( 'NONE',  ( 1.779983795594030850E-14, -6.246329632341316232E-16, 5.098076211353346210 ) ) ;
#164 = CARTESIAN_POINT ( 'NONE',  ( -2.138938537149983935E-31, -6.358847603239532171E-32, -6.126163452039814348E-17 ) ) ;
#165 = CALENDAR_DATE ( 2021, 8, 11 ) ;
#166 = FACE_OUTER_BOUND ( 'NONE', #63, .T. ) ;
#167 = DIRECTION ( 'NONE',  ( 3.491481338843133355E-15, -1.224646799147353207E-16, 1.000000000000000000 ) ) ;
#168 = ADVANCED_FACE ( 'NONE', ( #188, #153 ), #100, .T. ) ;
#169 = CC_DESIGN_PERSON_AND_ORGANIZATION_ASSIGNMENT ( #34, #120, ( #75 ) ) ;
#170 = DATE_AND_TIME ( #172, #201 ) ;
#171 = CIRCLE ( 'NONE', #140, 1.999999999999996669 ) ;
#172 = CALENDAR_DATE ( 2021, 8, 11 ) ;
#173 = PERSON_AND_ORGANIZATION_ROLE ( 'design_owner' ) ;
#174 = DIRECTION ( 'NONE',  ( 3.491481338843133355E-15, -1.224646799147353207E-16, 1.000000000000000000 ) ) ;
#175 =( GEOMETRIC_REPRESENTATION_CONTEXT ( 3 ) GLOBAL_UNCERTAINTY_ASSIGNED_CONTEXT ( ( #158 ) ) GLOBAL_UNIT_ASSIGNED_CONTEXT ( ( #31, #215, #203 ) ) REPRESENTATION_CONTEXT ( 'NONE', 'WORKASPACE' ) );
#176 = COORDINATED_UNIVERSAL_TIME_OFFSET ( 1, 0, .AHEAD. ) ;
#177 = PLANE ( 'NONE',  #151 ) ;
#178 = EDGE_CURVE ( 'NONE', #118, #118, #155, .T. ) ;
#179 = FACE_OUTER_BOUND ( 'NONE', #125, .T. ) ;
#180 = CC_DESIGN_APPROVAL ( #90, ( #75 ) ) ;
#181 = EDGE_LOOP ( 'NONE', ( #95 ) ) ;
#182 = AXIS2_PLACEMENT_3D ( 'NONE', #28, #9, #217 ) ;
#183 = CLOSED_SHELL ( 'NONE', ( #152, #144, #111 ) ) ;
#184 = DATE_TIME_ROLE ( 'creation_date' ) ;
#185 = DIRECTION ( 'NONE',  ( 0.0000000000000000000, -1.000000000000000000, 0.0000000000000000000 ) ) ;
#186 = DIRECTION ( 'NONE',  ( 0.0000000000000000000, 0.0000000000000000000, 1.000000000000000000 ) ) ;
#187 = AXIS2_PLACEMENT_3D ( 'NONE', #164, #202, #200 ) ;
#188 = FACE_OUTER_BOUND ( 'NONE', #197, .T. ) ;
#189 = EDGE_CURVE ( 'NONE', #45, #45, #54, .T. ) ;
#190 = CC_DESIGN_PERSON_AND_ORGANIZATION_ASSIGNMENT ( #129, #41, ( #80 ) ) ;
#191 = APPLICATION_CONTEXT ( 'configuration controlled 3d designs of mechanical parts and assemblies' ) ;
#192 = LOCAL_TIME ( 13, 44, 21.00000000000000000, #113 ) ;
#193 = DATE_AND_TIME ( #107, #208 ) ;
#194 = EDGE_CURVE ( 'NONE', #116, #116, #159, .T. ) ;
#195 = CARTESIAN_POINT ( 'NONE',  ( 1.779983795594030850E-14, -6.246329632341316232E-16, 5.098076211353346210 ) ) ;
#196 = EDGE_LOOP ( 'NONE', ( #211 ) ) ;
#197 = EDGE_LOOP ( 'NONE', ( #58 ) ) ;
#198 = PRODUCT_DEFINITION_SHAPE ( 'NONE', 'NONE',  #75 ) ;
#199 = FACE_OUTER_BOUND ( 'NONE', #142, .T. ) ;
#200 = DIRECTION ( 'NONE',  ( -4.277877074299980132E-31, -1.000000000000000000, -1.225232690407966814E-16 ) ) ;
#201 = LOCAL_TIME ( 13, 44, 21.00000000000000000, #176 ) ;
#202 = DIRECTION ( 'NONE',  ( 3.491481338843133355E-15, -1.225232690407966814E-16, 1.000000000000000000 ) ) ;
#203 =( NAMED_UNIT ( * ) SI_UNIT ( $, .STERADIAN. ) SOLID_ANGLE_UNIT ( ) );
#204 = DIRECTION ( 'NONE',  ( -4.275831445896958607E-31, -1.000000000000000000, -1.224646799147353207E-16 ) ) ;
#205 = APPLICATION_CONTEXT ( 'configuration controlled 3d designs of mechanical parts and assemblies' ) ;
#206 = ADVANCED_BREP_SHAPE_REPRESENTATION ( '964328', ( #209, #210, #67 ), #175 ) ;
#207 = APPROVAL_ROLE ( '' ) ;
#208 = LOCAL_TIME ( 13, 44, 21.00000000000000000, #104 ) ;
#209 = MANIFOLD_SOLID_BREP ( 'Corps-Déplacer/Copier1[1]', #27 ) ;
#210 = MANIFOLD_SOLID_BREP ( 'Corps-Déplacer/Copier1[2]', #183 ) ;
#211 = ORIENTED_EDGE ( 'NONE', *, *, #189, .T. ) ;
#212 = ORIENTED_EDGE ( 'NONE', *, *, #178, .F. ) ;
#213 = PRODUCT ( '964328', '964328', '', ( #33 ) ) ;
#214 = FACE_OUTER_BOUND ( 'NONE', #181, .T. ) ;
#215 =( NAMED_UNIT ( * ) PLANE_ANGLE_UNIT ( ) SI_UNIT ( $, .RADIAN. ) );
#216 = DIRECTION ( 'NONE',  ( 0.0000000000000000000, -1.000000000000000000, 0.0000000000000000000 ) ) ;
#217 = DIRECTION ( 'NONE',  ( 0.0000000000000000000, 1.000000000000000000, 0.0000000000000000000 ) ) ;
#218 = CARTESIAN_POINT ( 'NONE',  ( 1.222018468595096801E-13, -4.286263797015736496E-15, 35.00000000000000000 ) ) ;
#219 = VERTEX_POINT ( 'NONE', #83 ) ;
#220 = AXIS2_PLACEMENT_3D ( 'NONE', #218, #49, #5 ) ;
#221 = SECURITY_CLASSIFICATION_LEVEL ( 'unclassified' ) ;
#222 = DIRECTION ( 'NONE',  ( 0.0000000000000000000, -1.000000000000000000, 0.0000000000000000000 ) ) ;
#223 = EDGE_LOOP ( 'NONE', ( #20 ) ) ;
ENDSEC;
END-ISO-10303-21;
