ISO-10303-21;
HEADER;
FILE_DESCRIPTION (( 'STEP AP203' ),
    '1' );
FILE_NAME ('964325.step',
    '2021-11-16T15:36:02',
    ( '' ),
    ( '' ),
    'SwSTEP 2.0',
    'SolidWorks 2019',
    '' );
FILE_SCHEMA (( 'CONFIG_CONTROL_DESIGN' ));
ENDSEC;

DATA;
#1 = EDGE_CURVE ( 'NONE', #203, #203, #58, .T. ) ;
#2 = CLOSED_SHELL ( 'NONE', ( #105, #133, #187 ) ) ;
#3 = APPROVAL_PERSON_ORGANIZATION ( #12, #181, #85 ) ;
#4 = PERSON_AND_ORGANIZATION ( #66, #101 ) ;
#5 = EDGE_LOOP ( 'NONE', ( #108 ) ) ;
#6 = CARTESIAN_POINT ( 'NONE',  ( 2.199633243471174140E-13, -7.715274834628325378E-15, 63.00000000000000000 ) ) ;
#7 = ADVANCED_FACE ( 'NONE', ( #113, #10 ), #86, .T. ) ;
#8 = CARTESIAN_POINT ( 'NONE',  ( 0.0000000000000000000, 0.0000000000000000000, 0.0000000000000000000 ) ) ;
#9 = CARTESIAN_POINT ( 'NONE',  ( 4.189777606611760026E-14, -1.469576158976823947E-15, 12.00000000000000000 ) ) ;
#10 = FACE_BOUND ( 'NONE', #5, .T. ) ;
#11 = FACE_OUTER_BOUND ( 'NONE', #25, .T. ) ;
#12 = PERSON_AND_ORGANIZATION ( #66, #101 ) ;
#13 = LOCAL_TIME ( 16, 36, 2.000000000000000000, #140 ) ;
#14 = COORDINATED_UNIVERSAL_TIME_OFFSET ( 1, 0, .AHEAD. ) ;
#15 = CIRCLE ( 'NONE', #176, 2.000000000000003109 ) ;
#16 = VERTEX_POINT ( 'NONE', #132 ) ;
#17 = AXIS2_PLACEMENT_3D ( 'NONE', #19, #37, #39 ) ;
#18 = DIRECTION ( 'NONE',  ( 3.491481338843133355E-15, -1.224646799147353207E-16, 1.000000000000000000 ) ) ;
#19 = CARTESIAN_POINT ( 'NONE',  ( 2.199633243471174140E-13, 1.124819836996383900E-32, 63.00000000000000000 ) ) ;
#20 = EDGE_CURVE ( 'NONE', #186, #186, #149, .T. ) ;
#21 = DIRECTION ( 'NONE',  ( 0.0000000000000000000, 1.000000000000000000, 0.0000000000000000000 ) ) ;
#22 = ORIENTED_EDGE ( 'NONE', *, *, #127, .T. ) ;
#23 = AXIS2_PLACEMENT_3D ( 'NONE', #6, #79, #137 ) ;
#24 = AXIS2_PLACEMENT_3D ( 'NONE', #62, #125, #165 ) ;
#25 = EDGE_LOOP ( 'NONE', ( #22 ) ) ;
#26 = CC_DESIGN_PERSON_AND_ORGANIZATION_ASSIGNMENT ( #4, #51, ( #114 ) ) ;
#27 = CARTESIAN_POINT ( 'NONE',  ( 2.182175836776958284E-13, -7.654042494670957804E-15, 62.50000000000000000 ) ) ;
#28 = DATE_AND_TIME ( #47, #29 ) ;
#29 = LOCAL_TIME ( 16, 36, 2.000000000000000000, #178 ) ;
#30 = APPROVAL_DATE_TIME ( #32, #181 ) ;
#31 = MANIFOLD_SOLID_BREP ( 'Corps-Déplacer/Copier1[2]', #2 ) ;
#32 = DATE_AND_TIME ( #116, #13 ) ;
#33 = APPROVAL_ROLE ( '' ) ;
#34 = APPLICATION_CONTEXT ( 'configuration controlled 3d designs of mechanical parts and assemblies' ) ;
#35 = DATE_TIME_ROLE ( 'classification_date' ) ;
#36 = LOCAL_TIME ( 16, 36, 2.000000000000000000, #119 ) ;
#37 = DIRECTION ( 'NONE',  ( -3.491481338843133355E-15, 1.224646799147353207E-16, -1.000000000000000000 ) ) ;
#38 = DIRECTION ( 'NONE',  ( 3.491481338843133355E-15, -1.224646799147353207E-16, 1.000000000000000000 ) ) ;
#39 = DIRECTION ( 'NONE',  ( 4.275831445896958607E-31, 1.000000000000000000, 1.224646799147353207E-16 ) ) ;
#40 = ORIENTED_EDGE ( 'NONE', *, *, #1, .F. ) ;
#41 = PRODUCT_DEFINITION_SHAPE ( 'NONE', 'NONE',  #114 ) ;
#42 = ADVANCED_FACE ( 'NONE', ( #96, #148 ), #191, .T. ) ;
#43 = EDGE_LOOP ( 'NONE', ( #40 ) ) ;
#44 = EDGE_CURVE ( 'NONE', #156, #156, #15, .T. ) ;
#45 = AXIS2_PLACEMENT_3D ( 'NONE', #72, #199, #69 ) ;
#46 = ORIENTED_EDGE ( 'NONE', *, *, #61, .F. ) ;
#47 = CALENDAR_DATE ( 2021, 16, 11 ) ;
#48 = ADVANCED_BREP_SHAPE_REPRESENTATION ( '964325', ( #106, #31, #45 ), #196 ) ;
#49 = CLOSED_SHELL ( 'NONE', ( #167, #42, #7, #139 ) ) ;
#50 = PERSON_AND_ORGANIZATION_ROLE ( 'design_supplier' ) ;
#51 = PERSON_AND_ORGANIZATION_ROLE ( 'creator' ) ;
#52 = CARTESIAN_POINT ( 'NONE',  ( 4.189777606611760026E-14, 1.999999999999995337, 12.00000000000000000 ) ) ;
#53 = FACE_OUTER_BOUND ( 'NONE', #150, .T. ) ;
#54 = DIRECTION ( 'NONE',  ( -4.275831445896958607E-31, -1.000000000000000000, -1.224646799147353207E-16 ) ) ;
#55 = DIRECTION ( 'NONE',  ( -4.275831445896958607E-31, -1.000000000000000000, -1.224646799147353207E-16 ) ) ;
#56 = APPROVAL_STATUS ( 'not_yet_approved' ) ;
#57 = ORIENTED_EDGE ( 'NONE', *, *, #20, .F. ) ;
#58 = CIRCLE ( 'NONE', #166, 1.999999999999996669 ) ;
#59 = DIRECTION ( 'NONE',  ( 4.275831445896958607E-31, 1.000000000000000000, 1.224646799147353207E-16 ) ) ;
#60 = ORIENTED_EDGE ( 'NONE', *, *, #61, .T. ) ;
#61 = EDGE_CURVE ( 'NONE', #16, #16, #100, .T. ) ;
#62 = CARTESIAN_POINT ( 'NONE',  ( 4.189777606611760026E-14, -1.469576158976823947E-15, 12.00000000000000000 ) ) ;
#63 = APPROVAL_STATUS ( 'not_yet_approved' ) ;
#64 = SECURITY_CLASSIFICATION_LEVEL ( 'unclassified' ) ;
#65 = DATE_AND_TIME ( #84, #36 ) ;
#66 = PERSON ( 'UNSPECIFIED', 'UNSPECIFIED', 'UNSPECIFIED', ('UNSPECIFIED'), ('UNSPECIFIED'), ('UNSPECIFIED') ) ;
#67 = AXIS2_PLACEMENT_3D ( 'NONE', #160, #83, #21 ) ;
#68 = CC_DESIGN_PERSON_AND_ORGANIZATION_ASSIGNMENT ( #107, #146, ( #195 ) ) ;
#69 = DIRECTION ( 'NONE',  ( 1.000000000000000000, 0.0000000000000000000, 0.0000000000000000000 ) ) ;
#70 = DIRECTION ( 'NONE',  ( -4.275831445896958607E-31, -1.000000000000000000, -1.224646799147353207E-16 ) ) ;
#71 = LOCAL_TIME ( 16, 36, 2.000000000000000000, #14 ) ;
#72 = CARTESIAN_POINT ( 'NONE',  ( 0.0000000000000000000, 0.0000000000000000000, 0.0000000000000000000 ) ) ;
#73 = DIRECTION ( 'NONE',  ( -3.491481338843133355E-15, 1.224646799147353207E-16, -1.000000000000000000 ) ) ;
#74 = DIRECTION ( 'NONE',  ( 4.275831445896958607E-31, 1.000000000000000000, 1.224646799147353207E-16 ) ) ;
#75 = AXIS2_PLACEMENT_3D ( 'NONE', #8, #194, #59 ) ;
#76 = LOCAL_TIME ( 16, 36, 2.000000000000000000, #136 ) ;
#77 = PERSON_AND_ORGANIZATION ( #66, #101 ) ;
#78 = PRODUCT_RELATED_PRODUCT_CATEGORY ( 'detail', '', ( #195 ) ) ;
#79 = DIRECTION ( 'NONE',  ( -3.491481338843133355E-15, 1.224646799147353207E-16, -1.000000000000000000 ) ) ;
#80 = CC_DESIGN_APPROVAL ( #184, ( #114 ) ) ;
#81 = CC_DESIGN_PERSON_AND_ORGANIZATION_ASSIGNMENT ( #143, #117, ( #91 ) ) ;
#82 = DIRECTION ( 'NONE',  ( 0.0000000000000000000, 1.000000000000000000, 0.0000000000000000000 ) ) ;
#83 = DIRECTION ( 'NONE',  ( -3.491481338843133355E-15, 1.224646799147353207E-16, -1.000000000000000000 ) ) ;
#84 = CALENDAR_DATE ( 2021, 16, 11 ) ;
#85 = APPROVAL_ROLE ( '' ) ;
#86 = CONICAL_SURFACE ( 'NONE', #67, 1.500000000000003109, 0.7853981633974479459 ) ;
#87 = CC_DESIGN_DATE_AND_TIME_ASSIGNMENT ( #65, #35, ( #91 ) ) ;
#88 = PERSON_AND_ORGANIZATION ( #66, #101 ) ;
#89 = DIRECTION ( 'NONE',  ( -3.491481338843133355E-15, 1.224646799147353207E-16, -1.000000000000000000 ) ) ;
#90 = MECHANICAL_CONTEXT ( 'NONE', #34, 'mechanical' ) ;
#91 = SECURITY_CLASSIFICATION ( '', '', #64 ) ;
#92 = CARTESIAN_POINT ( 'NONE',  ( -6.413786353521998128E-31, 2.249653418127172114E-32, -1.836981421658447292E-16 ) ) ;
#93 = FACE_OUTER_BOUND ( 'NONE', #43, .T. ) ;
#94 = APPROVAL_DATE_TIME ( #174, #184 ) ;
#95 = ORIENTED_EDGE ( 'NONE', *, *, #127, .F. ) ;
#96 = FACE_OUTER_BOUND ( 'NONE', #163, .T. ) ;
#97 = AXIS2_PLACEMENT_3D ( 'NONE', #102, #38, #70 ) ;
#98 = APPLICATION_CONTEXT ( 'configuration controlled 3d designs of mechanical parts and assemblies' ) ;
#99 = APPROVAL_STATUS ( 'not_yet_approved' ) ;
#100 = CIRCLE ( 'NONE', #24, 1.999999999999996669 ) ;
#101 = ORGANIZATION ( 'UNSPECIFIED', 'UNSPECIFIED', '' ) ;
#102 = CARTESIAN_POINT ( 'NONE',  ( 4.189777606611760026E-14, 1.499759782661853229E-32, 12.00000000000000000 ) ) ;
#103 = PRODUCT_DEFINITION_FORMATION_WITH_SPECIFIED_SOURCE ( 'ANY', '', #195, .NOT_KNOWN. ) ;
#104 =( LENGTH_UNIT ( ) NAMED_UNIT ( * ) SI_UNIT ( .MILLI., .METRE. ) );
#105 = ADVANCED_FACE ( 'NONE', ( #11 ), #115, .F. ) ;
#106 = MANIFOLD_SOLID_BREP ( 'Corps-Déplacer/Copier1[1]', #49 ) ;
#107 = PERSON_AND_ORGANIZATION ( #66, #101 ) ;
#108 = ORIENTED_EDGE ( 'NONE', *, *, #20, .T. ) ;
#109 = UNCERTAINTY_MEASURE_WITH_UNIT (LENGTH_MEASURE( 1.000000000000000082E-05 ), #104, 'distance_accuracy_value', 'NONE');
#110 = EDGE_LOOP ( 'NONE', ( #151 ) ) ;
#111 = EDGE_LOOP ( 'NONE', ( #95 ) ) ;
#112 = CC_DESIGN_SECURITY_CLASSIFICATION ( #91, ( #103 ) ) ;
#113 = FACE_OUTER_BOUND ( 'NONE', #155, .T. ) ;
#114 = PRODUCT_DEFINITION ( 'UNKNOWN', '', #103, #192 ) ;
#115 = PLANE ( 'NONE',  #121 ) ;
#116 = CALENDAR_DATE ( 2021, 16, 11 ) ;
#117 = PERSON_AND_ORGANIZATION_ROLE ( 'classification_officer' ) ;
#118 = CC_DESIGN_DATE_AND_TIME_ASSIGNMENT ( #154, #177, ( #114 ) ) ;
#119 = COORDINATED_UNIVERSAL_TIME_OFFSET ( 1, 0, .AHEAD. ) ;
#120 = CARTESIAN_POINT ( 'NONE',  ( 2.199633243471174140E-13, 1.499999999999995337, 63.00000000000000000 ) ) ;
#121 = AXIS2_PLACEMENT_3D ( 'NONE', #168, #170, #54 ) ;
#122 =( NAMED_UNIT ( * ) SI_UNIT ( $, .STERADIAN. ) SOLID_ANGLE_UNIT ( ) );
#123 = APPROVAL_ROLE ( '' ) ;
#124 = DIRECTION ( 'NONE',  ( -3.491481338843133355E-15, 1.224646799147353207E-16, -1.000000000000000000 ) ) ;
#125 = DIRECTION ( 'NONE',  ( -3.491481338843133355E-15, 1.224646799147353207E-16, -1.000000000000000000 ) ) ;
#126 = CC_DESIGN_APPROVAL ( #181, ( #103 ) ) ;
#127 = EDGE_CURVE ( 'NONE', #173, #173, #135, .T. ) ;
#128 = SHAPE_DEFINITION_REPRESENTATION ( #41, #48 ) ;
#129 = PERSON_AND_ORGANIZATION ( #66, #101 ) ;
#130 = APPLICATION_PROTOCOL_DEFINITION ( 'international standard', 'config_control_design', 1994, #34 ) ;
#131 = CARTESIAN_POINT ( 'NONE',  ( 2.137876538271899380E-31, 1.999999999999995337, 6.123121766362532060E-17 ) ) ;
#132 = CARTESIAN_POINT ( 'NONE',  ( 4.189777606611760026E-14, 1.999999999999995337, 12.00000000000000000 ) ) ;
#133 = ADVANCED_FACE ( 'NONE', ( #157, #144 ), #202, .T. ) ;
#134 = PLANE ( 'NONE',  #161 ) ;
#135 = CIRCLE ( 'NONE', #179, 1.999999999999995337 ) ;
#136 = COORDINATED_UNIVERSAL_TIME_OFFSET ( 1, 0, .AHEAD. ) ;
#137 = DIRECTION ( 'NONE',  ( 0.0000000000000000000, 1.000000000000000000, 0.0000000000000000000 ) ) ;
#138 = DIRECTION ( 'NONE',  ( 0.0000000000000000000, 1.000000000000000000, 0.0000000000000000000 ) ) ;
#139 = ADVANCED_FACE ( 'NONE', ( #53 ), #171, .F. ) ;
#140 = COORDINATED_UNIVERSAL_TIME_OFFSET ( 1, 0, .AHEAD. ) ;
#141 = APPROVAL_DATE_TIME ( #28, #147 ) ;
#142 = CC_DESIGN_PERSON_AND_ORGANIZATION_ASSIGNMENT ( #169, #50, ( #103 ) ) ;
#143 = PERSON_AND_ORGANIZATION ( #66, #101 ) ;
#144 = FACE_OUTER_BOUND ( 'NONE', #190, .T. ) ;
#145 = CARTESIAN_POINT ( 'NONE',  ( 4.189777606611760026E-14, 1.499759782661853229E-32, 12.00000000000000000 ) ) ;
#146 = PERSON_AND_ORGANIZATION_ROLE ( 'design_owner' ) ;
#147 = APPROVAL ( #63, 'UNSPECIFIED' ) ;
#148 = FACE_OUTER_BOUND ( 'NONE', #110, .T. ) ;
#149 = CIRCLE ( 'NONE', #23, 1.500000000000003109 ) ;
#150 = EDGE_LOOP ( 'NONE', ( #57 ) ) ;
#151 = ORIENTED_EDGE ( 'NONE', *, *, #44, .T. ) ;
#152 = EDGE_LOOP ( 'NONE', ( #60 ) ) ;
#153 = APPROVAL_PERSON_ORGANIZATION ( #77, #184, #123 ) ;
#154 = DATE_AND_TIME ( #180, #71 ) ;
#155 = EDGE_LOOP ( 'NONE', ( #189 ) ) ;
#156 = VERTEX_POINT ( 'NONE', #183 ) ;
#157 = FACE_OUTER_BOUND ( 'NONE', #111, .T. ) ;
#158 = FACE_OUTER_BOUND ( 'NONE', #152, .T. ) ;
#159 = CALENDAR_DATE ( 2021, 16, 11 ) ;
#160 = CARTESIAN_POINT ( 'NONE',  ( 2.199633243471174140E-13, -7.715274834628325378E-15, 63.00000000000000000 ) ) ;
#161 = AXIS2_PLACEMENT_3D ( 'NONE', #145, #18, #55 ) ;
#162 = DIRECTION ( 'NONE',  ( -3.491481338843133355E-15, 1.224646799147353207E-16, -1.000000000000000000 ) ) ;
#163 = EDGE_LOOP ( 'NONE', ( #46 ) ) ;
#164 = CC_DESIGN_APPROVAL ( #147, ( #91 ) ) ;
#165 = DIRECTION ( 'NONE',  ( 0.0000000000000000000, 1.000000000000000000, 0.0000000000000000000 ) ) ;
#166 = AXIS2_PLACEMENT_3D ( 'NONE', #9, #162, #138 ) ;
#167 = ADVANCED_FACE ( 'NONE', ( #158 ), #172, .F. ) ;
#168 = CARTESIAN_POINT ( 'NONE',  ( -3.206893176760999064E-31, 1.124826709063586057E-32, -9.184907108292236459E-17 ) ) ;
#169 = PERSON_AND_ORGANIZATION ( #66, #101 ) ;
#170 = DIRECTION ( 'NONE',  ( 3.491481338843133355E-15, -1.224646799147353207E-16, 1.000000000000000000 ) ) ;
#171 = PLANE ( 'NONE',  #17 ) ;
#172 = PLANE ( 'NONE',  #97 ) ;
#173 = VERTEX_POINT ( 'NONE', #131 ) ;
#174 = DATE_AND_TIME ( #159, #76 ) ;
#175 = APPROVAL_PERSON_ORGANIZATION ( #129, #147, #33 ) ;
#176 = AXIS2_PLACEMENT_3D ( 'NONE', #27, #124, #82 ) ;
#177 = DATE_TIME_ROLE ( 'creation_date' ) ;
#178 = COORDINATED_UNIVERSAL_TIME_OFFSET ( 1, 0, .AHEAD. ) ;
#179 = AXIS2_PLACEMENT_3D ( 'NONE', #92, #73, #74 ) ;
#180 = CALENDAR_DATE ( 2021, 16, 11 ) ;
#181 = APPROVAL ( #99, 'UNSPECIFIED' ) ;
#182 = AXIS2_PLACEMENT_3D ( 'NONE', #185, #89, #200 ) ;
#183 = CARTESIAN_POINT ( 'NONE',  ( 2.182175836776958284E-13, 1.999999999999995337, 62.50000000000000000 ) ) ;
#184 = APPROVAL ( #56, 'UNSPECIFIED' ) ;
#185 = CARTESIAN_POINT ( 'NONE',  ( 0.0000000000000000000, 0.0000000000000000000, 0.0000000000000000000 ) ) ;
#186 = VERTEX_POINT ( 'NONE', #120 ) ;
#187 = ADVANCED_FACE ( 'NONE', ( #93 ), #134, .T. ) ;
#188 = APPLICATION_PROTOCOL_DEFINITION ( 'international standard', 'config_control_design', 1994, #98 ) ;
#189 = ORIENTED_EDGE ( 'NONE', *, *, #44, .F. ) ;
#190 = EDGE_LOOP ( 'NONE', ( #193 ) ) ;
#191 = CYLINDRICAL_SURFACE ( 'NONE', #75, 2.000000000000000000 ) ;
#192 = DESIGN_CONTEXT ( 'detailed design', #98, 'design' ) ;
#193 = ORIENTED_EDGE ( 'NONE', *, *, #1, .T. ) ;
#194 = DIRECTION ( 'NONE',  ( -3.491481338843133355E-15, 1.224646799147353207E-16, -1.000000000000000000 ) ) ;
#195 = PRODUCT ( '964325', '964325', '', ( #90 ) ) ;
#196 =( GEOMETRIC_REPRESENTATION_CONTEXT ( 3 ) GLOBAL_UNCERTAINTY_ASSIGNED_CONTEXT ( ( #109 ) ) GLOBAL_UNIT_ASSIGNED_CONTEXT ( ( #104, #201, #122 ) ) REPRESENTATION_CONTEXT ( 'NONE', 'WORKASPACE' ) );
#197 = PERSON_AND_ORGANIZATION_ROLE ( 'creator' ) ;
#198 = CC_DESIGN_PERSON_AND_ORGANIZATION_ASSIGNMENT ( #88, #197, ( #103 ) ) ;
#199 = DIRECTION ( 'NONE',  ( 0.0000000000000000000, 0.0000000000000000000, 1.000000000000000000 ) ) ;
#200 = DIRECTION ( 'NONE',  ( 4.275831445896958607E-31, 1.000000000000000000, 1.224646799147352961E-16 ) ) ;
#201 =( NAMED_UNIT ( * ) PLANE_ANGLE_UNIT ( ) SI_UNIT ( $, .RADIAN. ) );
#202 = CYLINDRICAL_SURFACE ( 'NONE', #182, 1.999999999999995781 ) ;
#203 = VERTEX_POINT ( 'NONE', #52 ) ;
ENDSEC;
END-ISO-10303-21;
