ISO-10303-21;
HEADER;
FILE_DESCRIPTION (( 'STEP AP203' ),
    '1' );
FILE_NAME ('964274.step',
    '2021-11-30T08:32:51',
    ( '' ),
    ( '' ),
    'SwSTEP 2.0',
    'SolidWorks 2019',
    '' );
FILE_SCHEMA (( 'CONFIG_CONTROL_DESIGN' ));
ENDSEC;

DATA;
#1 = CONICAL_SURFACE ( 'NONE', #199, 0.9334999999999991083, 0.5235987755982923764 ) ;
#2 = PERSON_AND_ORGANIZATION ( #176, #17 ) ;
#3 = CARTESIAN_POINT ( 'NONE',  ( 0.0000000000000000000, 0.0000000000000000000, 0.0000000000000000000 ) ) ;
#4 = DIRECTION ( 'NONE',  ( 0.0000000000000000000, 1.000000000000000000, 0.0000000000000000000 ) ) ;
#5 = EDGE_CURVE ( 'NONE', #40, #40, #119, .T. ) ;
#6 = CALENDAR_DATE ( 2021, 30, 11 ) ;
#7 = CARTESIAN_POINT ( 'NONE',  ( -1.481589719287135987E-31, 5.196717184734567710E-33, -4.243441609738190934E-17 ) ) ;
#8 = CARTESIAN_POINT ( 'NONE',  ( 8.728703347107831416E-16, -3.061616997868382402E-17, 0.2499999999999999445 ) ) ;
#9 = DIRECTION ( 'NONE',  ( 0.0000000000000000000, 0.0000000000000000000, 1.000000000000000000 ) ) ;
#10 = CARTESIAN_POINT ( 'NONE',  ( 1.745740669421566678E-13, 8.998558695971067645E-33, 50.00000000000000000 ) ) ;
#11 = CIRCLE ( 'NONE', #219, 0.9335000000000001075 ) ;
#12 = DIRECTION ( 'NONE',  ( 0.0000000000000000000, 1.000000000000000000, 0.0000000000000000000 ) ) ;
#13 = CIRCLE ( 'NONE', #35, 1.200000000000001732 ) ;
#14 = CYLINDRICAL_SURFACE ( 'NONE', #285, 1.499999999999999112 ) ;
#15 = EDGE_CURVE ( 'NONE', #230, #230, #75, .T. ) ;
#16 = VERTEX_POINT ( 'NONE', #79 ) ;
#17 = ORGANIZATION ( 'UNSPECIFIED', 'UNSPECIFIED', '' ) ;
#18 = CARTESIAN_POINT ( 'NONE',  ( 2.855775899875450203E-14, 0.8299999999999987388, 8.179267258583379885 ) ) ;
#19 = PERSON_AND_ORGANIZATION ( #176, #17 ) ;
#20 = CIRCLE ( 'NONE', #194, 0.8299999999999997380 ) ;
#21 = CARTESIAN_POINT ( 'NONE',  ( 1.745740669421566678E-13, -6.123233995736766085E-15, 50.00000000000000000 ) ) ;
#22 = CARTESIAN_POINT ( 'NONE',  ( -7.407948596435679936E-32, 2.598358592367283855E-33, -2.121720804869095467E-17 ) ) ;
#23 = CC_DESIGN_PERSON_AND_ORGANIZATION_ASSIGNMENT ( #2, #158, ( #96 ) ) ;
#24 = COORDINATED_UNIVERSAL_TIME_OFFSET ( 1, 0, .AHEAD. ) ;
#25 = EDGE_LOOP ( 'NONE', ( #162 ) ) ;
#26 = AXIS2_PLACEMENT_3D ( 'NONE', #8, #92, #195 ) ;
#27 = ADVANCED_FACE ( 'NONE', ( #55 ), #222, .F. ) ;
#28 = ORIENTED_EDGE ( 'NONE', *, *, #15, .F. ) ;
#29 = DIRECTION ( 'NONE',  ( -3.491481338843133355E-15, 1.224646799147353207E-16, -1.000000000000000000 ) ) ;
#30 = APPROVAL_PERSON_ORGANIZATION ( #52, #91, #275 ) ;
#31 = DIRECTION ( 'NONE',  ( -3.491481338843133355E-15, 1.224646799147353207E-16, -1.000000000000000000 ) ) ;
#32 = ORIENTED_EDGE ( 'NONE', *, *, #198, .T. ) ;
#33 = EDGE_LOOP ( 'NONE', ( #182 ) ) ;
#34 = CONICAL_SURFACE ( 'NONE', #204, 0.9335000000000001075, 0.5235987755983001479 ) ;
#35 = AXIS2_PLACEMENT_3D ( 'NONE', #159, #42, #51 ) ;
#36 = DIRECTION ( 'NONE',  ( -3.491481338843133355E-15, 1.224646799147353207E-16, -1.000000000000000000 ) ) ;
#37 = DIRECTION ( 'NONE',  ( 0.0000000000000000000, 1.000000000000000000, 0.0000000000000000000 ) ) ;
#38 = DIRECTION ( 'NONE',  ( 3.491481338843133355E-15, -1.224646799147353207E-16, 1.000000000000000000 ) ) ;
#39 = PERSON_AND_ORGANIZATION ( #176, #17 ) ;
#40 = VERTEX_POINT ( 'NONE', #153 ) ;
#41 = DIRECTION ( 'NONE',  ( 0.0000000000000000000, 1.000000000000000000, 0.0000000000000000000 ) ) ;
#42 = DIRECTION ( 'NONE',  ( -3.491481338843133355E-15, 1.224646799147353207E-16, -1.000000000000000000 ) ) ;
#43 = VERTEX_POINT ( 'NONE', #121 ) ;
#44 = APPROVAL_PERSON_ORGANIZATION ( #172, #93, #47 ) ;
#45 = CARTESIAN_POINT ( 'NONE',  ( 7.323289984160132697E-14, -2.568664348439903135E-15, 20.97473614619584481 ) ) ;
#46 = CC_DESIGN_PERSON_AND_ORGANIZATION_ASSIGNMENT ( #54, #250, ( #295 ) ) ;
#47 = APPROVAL_ROLE ( '' ) ;
#48 = ORIENTED_EDGE ( 'NONE', *, *, #198, .F. ) ;
#49 = ORIENTED_EDGE ( 'NONE', *, *, #73, .F. ) ;
#50 =( NAMED_UNIT ( * ) SI_UNIT ( $, .STERADIAN. ) SOLID_ANGLE_UNIT ( ) );
#51 = DIRECTION ( 'NONE',  ( 0.0000000000000000000, 1.000000000000000000, 0.0000000000000000000 ) ) ;
#52 = PERSON_AND_ORGANIZATION ( #176, #17 ) ;
#53 = EDGE_LOOP ( 'NONE', ( #67 ) ) ;
#54 = PERSON_AND_ORGANIZATION ( #176, #17 ) ;
#55 = FACE_OUTER_BOUND ( 'NONE', #228, .T. ) ;
#56 = APPROVAL_STATUS ( 'not_yet_approved' ) ;
#57 = ADVANCED_FACE ( 'NONE', ( #227, #78 ), #34, .T. ) ;
#58 = CIRCLE ( 'NONE', #237, 1.499999999999996669 ) ;
#59 = CONICAL_SURFACE ( 'NONE', #252, 1.200000000000001732, 0.7853981633974453924 ) ;
#60 =( NAMED_UNIT ( * ) PLANE_ANGLE_UNIT ( ) SI_UNIT ( $, .RADIAN. ) );
#61 = DIRECTION ( 'NONE',  ( 3.491481338843133355E-15, -1.224646799147353207E-16, 1.000000000000000000 ) ) ;
#62 = DIRECTION ( 'NONE',  ( -3.491481338843133355E-15, 1.224646799147353207E-16, -1.000000000000000000 ) ) ;
#63 = CARTESIAN_POINT ( 'NONE',  ( 8.728703347107835360E-16, 0.9334999999999991083, 0.2500000000000000555 ) ) ;
#64 = CARTESIAN_POINT ( 'NONE',  ( 2.793185071074506684E-14, 7.000128785574206618E-33, 8.000000000000000000 ) ) ;
#65 = CC_DESIGN_PERSON_AND_ORGANIZATION_ASSIGNMENT ( #19, #217, ( #201 ) ) ;
#66 = DIRECTION ( 'NONE',  ( 4.275831445896958607E-31, 1.000000000000000000, 1.224646799147353207E-16 ) ) ;
#67 = ORIENTED_EDGE ( 'NONE', *, *, #76, .F. ) ;
#68 = LOCAL_TIME ( 9, 32, 51.00000000000000000, #163 ) ;
#69 = EDGE_LOOP ( 'NONE', ( #83 ) ) ;
#70 = EDGE_CURVE ( 'NONE', #202, #202, #111, .T. ) ;
#71 = AXIS2_PLACEMENT_3D ( 'NONE', #81, #125, #232 ) ;
#72 = FACE_OUTER_BOUND ( 'NONE', #259, .T. ) ;
#73 = EDGE_CURVE ( 'NONE', #256, #256, #20, .T. ) ;
#74 = DIRECTION ( 'NONE',  ( 4.275831445896958607E-31, 1.000000000000000000, 1.224646799147353454E-16 ) ) ;
#75 = CIRCLE ( 'NONE', #258, 0.7891624327025947849 ) ;
#76 = EDGE_CURVE ( 'NONE', #160, #160, #58, .T. ) ;
#77 = CIRCLE ( 'NONE', #156, 0.8603844939755805887 ) ;
#78 = FACE_OUTER_BOUND ( 'NONE', #215, .T. ) ;
#79 = CARTESIAN_POINT ( 'NONE',  ( 6.056776150402961829E-14, 0.8603844939755783683, 17.34729635533384240 ) ) ;
#80 = FACE_OUTER_BOUND ( 'NONE', #249, .T. ) ;
#81 = CARTESIAN_POINT ( 'NONE',  ( 5.935518276033326704E-14, -2.081899558550500280E-15, 17.00000000000000000 ) ) ;
#82 = CARTESIAN_POINT ( 'NONE',  ( 2.855775899875450203E-14, -1.001671346759488102E-15, 8.179267258583379885 ) ) ;
#83 = ORIENTED_EDGE ( 'NONE', *, *, #73, .T. ) ;
#84 = ADVANCED_FACE ( 'NONE', ( #86 ), #296, .F. ) ;
#85 = CARTESIAN_POINT ( 'NONE',  ( 5.935518276033326704E-14, 0.8299999999999978506, 17.00000000000000000 ) ) ;
#86 = FACE_OUTER_BOUND ( 'NONE', #110, .T. ) ;
#87 = APPROVAL_DATE_TIME ( #157, #91 ) ;
#88 = PLANE ( 'NONE',  #141 ) ;
#89 = CARTESIAN_POINT ( 'NONE',  ( 6.056776150402961829E-14, -2.124431095542013598E-15, 17.34729635533384240 ) ) ;
#90 = AXIS2_PLACEMENT_3D ( 'NONE', #247, #31, #197 ) ;
#91 = APPROVAL ( #56, 'UNSPECIFIED' ) ;
#92 = DIRECTION ( 'NONE',  ( -3.491481338843133355E-15, 1.224646799147353207E-16, -1.000000000000000000 ) ) ;
#93 = APPROVAL ( #223, 'UNSPECIFIED' ) ;
#94 = FACE_OUTER_BOUND ( 'NONE', #267, .T. ) ;
#95 = CLOSED_SHELL ( 'NONE', ( #84, #112, #117, #106 ) ) ;
#96 = PRODUCT_DEFINITION_FORMATION_WITH_SPECIFIED_SOURCE ( 'ANY', '', #226, .NOT_KNOWN. ) ;
#97 =( LENGTH_UNIT ( ) NAMED_UNIT ( * ) SI_UNIT ( .MILLI., .METRE. ) );
#98 = CC_DESIGN_SECURITY_CLASSIFICATION ( #201, ( #96 ) ) ;
#99 = PRODUCT_RELATED_PRODUCT_CATEGORY ( 'detail', '', ( #226 ) ) ;
#100 = DATE_AND_TIME ( #253, #239 ) ;
#101 = DIRECTION ( 'NONE',  ( -4.275831445896958607E-31, -1.000000000000000000, -1.224646799147353207E-16 ) ) ;
#102 = VERTEX_POINT ( 'NONE', #127 ) ;
#103 = DIRECTION ( 'NONE',  ( 4.275831445896958607E-31, 1.000000000000000000, 1.224646799147353207E-16 ) ) ;
#104 = APPROVAL_DATE_TIME ( #241, #93 ) ;
#105 = APPLICATION_PROTOCOL_DEFINITION ( 'international standard', 'config_control_design', 1994, #118 ) ;
#106 = ADVANCED_FACE ( 'NONE', ( #152 ), #108, .T. ) ;
#107 = CC_DESIGN_APPROVAL ( #91, ( #96 ) ) ;
#108 = PLANE ( 'NONE',  #113 ) ;
#109 = CARTESIAN_POINT ( 'NONE',  ( 7.323289984160132697E-14, -2.568664348439903135E-15, 20.97473614619584481 ) ) ;
#110 = EDGE_LOOP ( 'NONE', ( #288 ) ) ;
#111 = CIRCLE ( 'NONE', #71, 0.8299999999999998490 ) ;
#112 = ADVANCED_FACE ( 'NONE', ( #137, #124 ), #1, .T. ) ;
#113 = AXIS2_PLACEMENT_3D ( 'NONE', #208, #61, #101 ) ;
#114 = ORIENTED_EDGE ( 'NONE', *, *, #76, .T. ) ;
#115 = CARTESIAN_POINT ( 'NONE',  ( 0.0000000000000000000, 0.0000000000000000000, 0.0000000000000000000 ) ) ;
#116 = EDGE_LOOP ( 'NONE', ( #147 ) ) ;
#117 = ADVANCED_FACE ( 'NONE', ( #80, #94 ), #173, .T. ) ;
#118 = APPLICATION_CONTEXT ( 'configuration controlled 3d designs of mechanical parts and assemblies' ) ;
#119 = CIRCLE ( 'NONE', #149, 0.9335000000000001075 ) ;
#120 = ADVANCED_FACE ( 'NONE', ( #274, #272 ), #59, .T. ) ;
#121 = CARTESIAN_POINT ( 'NONE',  ( 1.745740669421566678E-13, 1.199999999999995515, 50.00000000000000000 ) ) ;
#122 = EDGE_LOOP ( 'NONE', ( #244 ) ) ;
#123 = AXIS2_PLACEMENT_3D ( 'NONE', #109, #191, #200 ) ;
#124 = FACE_OUTER_BOUND ( 'NONE', #298, .T. ) ;
#125 = DIRECTION ( 'NONE',  ( -3.491481338843133355E-15, 1.224646799147353207E-16, -1.000000000000000000 ) ) ;
#126 = DIRECTION ( 'NONE',  ( -4.275831445896958607E-31, -1.000000000000000000, -1.224646799147353207E-16 ) ) ;
#127 = CARTESIAN_POINT ( 'NONE',  ( 1.735266225405037467E-13, 1.499999999999995559, 49.70000000000000284 ) ) ;
#128 = DESIGN_CONTEXT ( 'detailed design', #118, 'design' ) ;
#129 = SECURITY_CLASSIFICATION_LEVEL ( 'unclassified' ) ;
#130 = DIRECTION ( 'NONE',  ( -3.491481338843133355E-15, 1.224646799147353207E-16, -1.000000000000000000 ) ) ;
#131 = DIRECTION ( 'NONE',  ( -3.491481338843133355E-15, 1.224646799147353207E-16, -1.000000000000000000 ) ) ;
#132 = ORIENTED_EDGE ( 'NONE', *, *, #175, .F. ) ;
#133 = AXIS2_PLACEMENT_3D ( 'NONE', #22, #185, #164 ) ;
#134 = EDGE_LOOP ( 'NONE', ( #140 ) ) ;
#135 = CARTESIAN_POINT ( 'NONE',  ( 1.735266225405037467E-13, -6.086494591762345225E-15, 49.70000000000000284 ) ) ;
#136 = CALENDAR_DATE ( 2021, 30, 11 ) ;
#137 = FACE_BOUND ( 'NONE', #283, .T. ) ;
#138 = CC_DESIGN_PERSON_AND_ORGANIZATION_ASSIGNMENT ( #139, #212, ( #96 ) ) ;
#139 = PERSON_AND_ORGANIZATION ( #176, #17 ) ;
#140 = ORIENTED_EDGE ( 'NONE', *, *, #209, .T. ) ;
#141 = AXIS2_PLACEMENT_3D ( 'NONE', #64, #38, #126 ) ;
#142 = EDGE_CURVE ( 'NONE', #102, #102, #262, .T. ) ;
#143 = APPLICATION_PROTOCOL_DEFINITION ( 'international standard', 'config_control_design', 1994, #246 ) ;
#144 = FACE_OUTER_BOUND ( 'NONE', #203, .T. ) ;
#145 = COORDINATED_UNIVERSAL_TIME_OFFSET ( 1, 0, .AHEAD. ) ;
#146 =( GEOMETRIC_REPRESENTATION_CONTEXT ( 3 ) GLOBAL_UNCERTAINTY_ASSIGNED_CONTEXT ( ( #260 ) ) GLOBAL_UNIT_ASSIGNED_CONTEXT ( ( #97, #60, #50 ) ) REPRESENTATION_CONTEXT ( 'NONE', 'WORKASPACE' ) );
#147 = ORIENTED_EDGE ( 'NONE', *, *, #142, .F. ) ;
#148 = DIRECTION ( 'NONE',  ( -4.126255906560766308E-31, -1.000000000000000000, -1.161437785201398457E-16 ) ) ;
#149 = AXIS2_PLACEMENT_3D ( 'NONE', #269, #36, #12 ) ;
#150 = CC_DESIGN_APPROVAL ( #165, ( #201 ) ) ;
#151 = ADVANCED_FACE ( 'NONE', ( #240 ), #88, .F. ) ;
#152 = FACE_OUTER_BOUND ( 'NONE', #33, .T. ) ;
#153 = CARTESIAN_POINT ( 'NONE',  ( 2.793185071074506684E-14, 0.9334999999999991083, 8.000000000000000000 ) ) ;
#154 = COORDINATED_UNIVERSAL_TIME_OFFSET ( 1, 0, .AHEAD. ) ;
#155 = MANIFOLD_SOLID_BREP ( 'Corps-Déplacer/Copier1[1]', #210 ) ;
#156 = AXIS2_PLACEMENT_3D ( 'NONE', #89, #187, #4 ) ;
#157 = DATE_AND_TIME ( #281, #189 ) ;
#158 = PERSON_AND_ORGANIZATION_ROLE ( 'design_supplier' ) ;
#159 = CARTESIAN_POINT ( 'NONE',  ( 1.745740669421566678E-13, -6.123233995736766085E-15, 50.00000000000000000 ) ) ;
#160 = VERTEX_POINT ( 'NONE', #273 ) ;
#161 = DIRECTION ( 'NONE',  ( 0.0000000000000000000, 1.000000000000000000, 0.0000000000000000000 ) ) ;
#162 = ORIENTED_EDGE ( 'NONE', *, *, #209, .F. ) ;
#163 = COORDINATED_UNIVERSAL_TIME_OFFSET ( 1, 0, .AHEAD. ) ;
#164 = DIRECTION ( 'NONE',  ( -4.275831445896958607E-31, -1.000000000000000000, -1.224646799147353207E-16 ) ) ;
#165 = APPROVAL ( #236, 'UNSPECIFIED' ) ;
#166 = FACE_OUTER_BOUND ( 'NONE', #214, .T. ) ;
#167 = ADVANCED_BREP_SHAPE_REPRESENTATION ( '964274', ( #155, #263, #243 ), #146 ) ;
#168 = DATE_AND_TIME ( #6, #277 ) ;
#169 = SHAPE_DEFINITION_REPRESENTATION ( #180, #167 ) ;
#170 = DATE_TIME_ROLE ( 'creation_date' ) ;
#171 = CYLINDRICAL_SURFACE ( 'NONE', #90, 0.8299999999999997380 ) ;
#172 = PERSON_AND_ORGANIZATION ( #176, #17 ) ;
#173 = CYLINDRICAL_SURFACE ( 'NONE', #224, 0.9334999999999996634 ) ;
#174 = AXIS2_PLACEMENT_3D ( 'NONE', #135, #302, #293 ) ;
#175 = EDGE_CURVE ( 'NONE', #233, #233, #11, .T. ) ;
#176 = PERSON ( 'UNSPECIFIED', 'UNSPECIFIED', 'UNSPECIFIED', ('UNSPECIFIED'), ('UNSPECIFIED'), ('UNSPECIFIED') ) ;
#177 = CC_DESIGN_PERSON_AND_ORGANIZATION_ASSIGNMENT ( #303, #278, ( #226 ) ) ;
#178 = APPROVAL_PERSON_ORGANIZATION ( #39, #165, #245 ) ;
#179 = DIRECTION ( 'NONE',  ( -3.491481338843133355E-15, 1.224646799147353207E-16, -1.000000000000000000 ) ) ;
#180 = PRODUCT_DEFINITION_SHAPE ( 'NONE', 'NONE',  #295 ) ;
#181 = CARTESIAN_POINT ( 'NONE',  ( 0.0000000000000000000, 0.0000000000000000000, 0.0000000000000000000 ) ) ;
#182 = ORIENTED_EDGE ( 'NONE', *, *, #5, .F. ) ;
#183 = LOCAL_TIME ( 9, 32, 51.00000000000000000, #145 ) ;
#184 = CC_DESIGN_APPROVAL ( #93, ( #295 ) ) ;
#185 = DIRECTION ( 'NONE',  ( 3.491481338843133355E-15, -1.224646799147353207E-16, 1.000000000000000000 ) ) ;
#186 = ADVANCED_FACE ( 'NONE', ( #144, #292 ), #229, .F. ) ;
#187 = DIRECTION ( 'NONE',  ( -3.491481338843133355E-15, 1.224646799147353207E-16, -1.000000000000000000 ) ) ;
#188 = MECHANICAL_CONTEXT ( 'NONE', #246, 'mechanical' ) ;
#189 = LOCAL_TIME ( 9, 32, 51.00000000000000000, #24 ) ;
#190 = ORIENTED_EDGE ( 'NONE', *, *, #70, .F. ) ;
#191 = DIRECTION ( 'NONE',  ( 3.491481338843133355E-15, -1.224646799147353207E-16, 1.000000000000000000 ) ) ;
#192 = ORIENTED_EDGE ( 'NONE', *, *, #5, .T. ) ;
#193 = COORDINATED_UNIVERSAL_TIME_OFFSET ( 1, 0, .AHEAD. ) ;
#194 = AXIS2_PLACEMENT_3D ( 'NONE', #82, #207, #265 ) ;
#195 = DIRECTION ( 'NONE',  ( 4.126255906560766308E-31, 1.000000000000000000, 1.161437785201398457E-16 ) ) ;
#196 = ORIENTED_EDGE ( 'NONE', *, *, #286, .F. ) ;
#197 = DIRECTION ( 'NONE',  ( 4.275831445896958607E-31, 1.000000000000000000, 1.224646799147353207E-16 ) ) ;
#198 = EDGE_CURVE ( 'NONE', #43, #43, #13, .T. ) ;
#199 = AXIS2_PLACEMENT_3D ( 'NONE', #242, #216, #148 ) ;
#200 = DIRECTION ( 'NONE',  ( 0.0000000000000000000, -1.000000000000000000, 0.0000000000000000000 ) ) ;
#201 = SECURITY_CLASSIFICATION ( '', '', #129 ) ;
#202 = VERTEX_POINT ( 'NONE', #85 ) ;
#203 = EDGE_LOOP ( 'NONE', ( #190 ) ) ;
#204 = AXIS2_PLACEMENT_3D ( 'NONE', #290, #62, #37 ) ;
#205 = ORIENTED_EDGE ( 'NONE', *, *, #142, .T. ) ;
#206 = DIRECTION ( 'NONE',  ( 4.275831445896958607E-31, 1.000000000000000000, 1.224646799147353207E-16 ) ) ;
#207 = DIRECTION ( 'NONE',  ( -3.491481338843133355E-15, 1.224646799147353207E-16, -1.000000000000000000 ) ) ;
#208 = CARTESIAN_POINT ( 'NONE',  ( 2.793185071074506684E-14, 7.000128785574206618E-33, 8.000000000000000000 ) ) ;
#209 = EDGE_CURVE ( 'NONE', #16, #16, #77, .T. ) ;
#210 = CLOSED_SHELL ( 'NONE', ( #151, #57, #289, #186, #213, #255, #120, #27 ) ) ;
#211 = CIRCLE ( 'NONE', #26, 0.9334999999999991083 ) ;
#212 = PERSON_AND_ORGANIZATION_ROLE ( 'creator' ) ;
#213 = ADVANCED_FACE ( 'NONE', ( #276, #166 ), #248, .T. ) ;
#214 = EDGE_LOOP ( 'NONE', ( #114 ) ) ;
#215 = EDGE_LOOP ( 'NONE', ( #132 ) ) ;
#216 = DIRECTION ( 'NONE',  ( 3.491481338843133355E-15, -1.224646799147353207E-16, 1.000000000000000000 ) ) ;
#217 = PERSON_AND_ORGANIZATION_ROLE ( 'classification_officer' ) ;
#218 = DIRECTION ( 'NONE',  ( -3.491481338843133355E-15, 1.224646799147353207E-16, -1.000000000000000000 ) ) ;
#219 = AXIS2_PLACEMENT_3D ( 'NONE', #231, #234, #266 ) ;
#220 = DIRECTION ( 'NONE',  ( 4.275831445896958607E-31, 1.000000000000000000, 1.224646799147353454E-16 ) ) ;
#221 = ORIENTED_EDGE ( 'NONE', *, *, #175, .T. ) ;
#222 = PLANE ( 'NONE',  #297 ) ;
#223 = APPROVAL_STATUS ( 'not_yet_approved' ) ;
#224 = AXIS2_PLACEMENT_3D ( 'NONE', #181, #235, #206 ) ;
#225 = FACE_OUTER_BOUND ( 'NONE', #294, .T. ) ;
#226 = PRODUCT ( '964274', '964274', '', ( #188 ) ) ;
#227 = FACE_BOUND ( 'NONE', #69, .T. ) ;
#228 = EDGE_LOOP ( 'NONE', ( #48 ) ) ;
#229 = TOROIDAL_SURFACE ( 'NONE', #268, 2.829999999999999627, 2.000000000000000000 ) ;
#230 = VERTEX_POINT ( 'NONE', #300 ) ;
#231 = CARTESIAN_POINT ( 'NONE',  ( 2.793185071074506684E-14, -9.797174393178825657E-16, 8.000000000000000000 ) ) ;
#232 = DIRECTION ( 'NONE',  ( 0.0000000000000000000, 1.000000000000000000, 0.0000000000000000000 ) ) ;
#233 = VERTEX_POINT ( 'NONE', #261 ) ;
#234 = DIRECTION ( 'NONE',  ( -3.491481338843133355E-15, 1.224646799147353207E-16, -1.000000000000000000 ) ) ;
#235 = DIRECTION ( 'NONE',  ( -3.491481338843133355E-15, 1.224646799147353207E-16, -1.000000000000000000 ) ) ;
#236 = APPROVAL_STATUS ( 'not_yet_approved' ) ;
#237 = AXIS2_PLACEMENT_3D ( 'NONE', #45, #131, #41 ) ;
#238 = EDGE_LOOP ( 'NONE', ( #221 ) ) ;
#239 = LOCAL_TIME ( 9, 32, 51.00000000000000000, #154 ) ;
#240 = FACE_OUTER_BOUND ( 'NONE', #238, .T. ) ;
#241 = DATE_AND_TIME ( #136, #68 ) ;
#242 = CARTESIAN_POINT ( 'NONE',  ( 8.728703347107831416E-16, -3.061616997868382402E-17, 0.2499999999999999445 ) ) ;
#243 = AXIS2_PLACEMENT_3D ( 'NONE', #3, #9, #279 ) ;
#244 = ORIENTED_EDGE ( 'NONE', *, *, #70, .T. ) ;
#245 = APPROVAL_ROLE ( '' ) ;
#246 = APPLICATION_CONTEXT ( 'configuration controlled 3d designs of mechanical parts and assemblies' ) ;
#247 = CARTESIAN_POINT ( 'NONE',  ( 0.0000000000000000000, 0.0000000000000000000, 0.0000000000000000000 ) ) ;
#248 = CONICAL_SURFACE ( 'NONE', #123, 1.499999999999996669, 0.1745329251994259534 ) ;
#249 = EDGE_LOOP ( 'NONE', ( #196 ) ) ;
#250 = PERSON_AND_ORGANIZATION_ROLE ( 'creator' ) ;
#251 = FACE_OUTER_BOUND ( 'NONE', #53, .T. ) ;
#252 = AXIS2_PLACEMENT_3D ( 'NONE', #21, #130, #161 ) ;
#253 = CALENDAR_DATE ( 2021, 30, 11 ) ;
#254 = CARTESIAN_POINT ( 'NONE',  ( 5.935518276033326704E-14, -2.168404344971008868E-15, 17.00000000000000000 ) ) ;
#255 = ADVANCED_FACE ( 'NONE', ( #251, #225 ), #14, .T. ) ;
#256 = VERTEX_POINT ( 'NONE', #18 ) ;
#257 = APPROVAL_DATE_TIME ( #100, #165 ) ;
#258 = AXIS2_PLACEMENT_3D ( 'NONE', #7, #29, #74 ) ;
#259 = EDGE_LOOP ( 'NONE', ( #49 ) ) ;
#260 = UNCERTAINTY_MEASURE_WITH_UNIT (LENGTH_MEASURE( 1.000000000000000082E-05 ), #97, 'distance_accuracy_value', 'NONE');
#261 = CARTESIAN_POINT ( 'NONE',  ( 2.793185071074506684E-14, 0.9334999999999991083, 8.000000000000000000 ) ) ;
#262 = CIRCLE ( 'NONE', #174, 1.500000000000001554 ) ;
#263 = MANIFOLD_SOLID_BREP ( 'Corps-Déplacer/Copier1[2]', #95 ) ;
#264 = DATE_AND_TIME ( #282, #183 ) ;
#265 = DIRECTION ( 'NONE',  ( 0.0000000000000000000, 1.000000000000000000, 0.0000000000000000000 ) ) ;
#266 = DIRECTION ( 'NONE',  ( 0.0000000000000000000, 1.000000000000000000, 0.0000000000000000000 ) ) ;
#267 = EDGE_LOOP ( 'NONE', ( #192 ) ) ;
#268 = AXIS2_PLACEMENT_3D ( 'NONE', #254, #299, #103 ) ;
#269 = CARTESIAN_POINT ( 'NONE',  ( 2.793185071074506684E-14, -9.797174393178825657E-16, 8.000000000000000000 ) ) ;
#270 = CC_DESIGN_DATE_AND_TIME_ASSIGNMENT ( #264, #284, ( #201 ) ) ;
#271 = VERTEX_POINT ( 'NONE', #63 ) ;
#272 = FACE_BOUND ( 'NONE', #301, .T. ) ;
#273 = CARTESIAN_POINT ( 'NONE',  ( 7.323289984160132697E-14, 1.499999999999994005, 20.97473614619584481 ) ) ;
#274 = FACE_OUTER_BOUND ( 'NONE', #116, .T. ) ;
#275 = APPROVAL_ROLE ( '' ) ;
#276 = FACE_BOUND ( 'NONE', #25, .T. ) ;
#277 = LOCAL_TIME ( 9, 32, 51.00000000000000000, #193 ) ;
#278 = PERSON_AND_ORGANIZATION_ROLE ( 'design_owner' ) ;
#279 = DIRECTION ( 'NONE',  ( 1.000000000000000000, 0.0000000000000000000, 0.0000000000000000000 ) ) ;
#280 = ORIENTED_EDGE ( 'NONE', *, *, #286, .T. ) ;
#281 = CALENDAR_DATE ( 2021, 30, 11 ) ;
#282 = CALENDAR_DATE ( 2021, 30, 11 ) ;
#283 = EDGE_LOOP ( 'NONE', ( #28 ) ) ;
#284 = DATE_TIME_ROLE ( 'classification_date' ) ;
#285 = AXIS2_PLACEMENT_3D ( 'NONE', #115, #218, #220 ) ;
#286 = EDGE_CURVE ( 'NONE', #271, #271, #211, .T. ) ;
#287 = FACE_OUTER_BOUND ( 'NONE', #122, .T. ) ;
#288 = ORIENTED_EDGE ( 'NONE', *, *, #15, .T. ) ;
#289 = ADVANCED_FACE ( 'NONE', ( #287, #72 ), #171, .T. ) ;
#290 = CARTESIAN_POINT ( 'NONE',  ( 2.793185071074506684E-14, -9.797174393178825657E-16, 8.000000000000000000 ) ) ;
#291 = CC_DESIGN_DATE_AND_TIME_ASSIGNMENT ( #168, #170, ( #295 ) ) ;
#292 = FACE_OUTER_BOUND ( 'NONE', #134, .T. ) ;
#293 = DIRECTION ( 'NONE',  ( 0.0000000000000000000, 1.000000000000000000, 0.0000000000000000000 ) ) ;
#294 = EDGE_LOOP ( 'NONE', ( #205 ) ) ;
#295 = PRODUCT_DEFINITION ( 'UNKNOWN', '', #96, #128 ) ;
#296 = PLANE ( 'NONE',  #133 ) ;
#297 = AXIS2_PLACEMENT_3D ( 'NONE', #10, #179, #66 ) ;
#298 = EDGE_LOOP ( 'NONE', ( #280 ) ) ;
#299 = DIRECTION ( 'NONE',  ( -3.491481338843133355E-15, 1.224646799147353207E-16, -1.000000000000000000 ) ) ;
#300 = CARTESIAN_POINT ( 'NONE',  ( 1.892735826383161137E-31, 0.7891624327025947849, 5.421010862427522170E-17 ) ) ;
#301 = EDGE_LOOP ( 'NONE', ( #32 ) ) ;
#302 = DIRECTION ( 'NONE',  ( -3.491481338843133355E-15, 1.224646799147353207E-16, -1.000000000000000000 ) ) ;
#303 = PERSON_AND_ORGANIZATION ( #176, #17 ) ;
ENDSEC;
END-ISO-10303-21;
