ISO-10303-21;
HEADER;
FILE_DESCRIPTION (( 'STEP AP203' ),
    '1' );
FILE_NAME ('964146.step',
    '2021-11-16T14:59:20',
    ( '' ),
    ( '' ),
    'SwSTEP 2.0',
    'SolidWorks 2019',
    '' );
FILE_SCHEMA (( 'CONFIG_CONTROL_DESIGN' ));
ENDSEC;

DATA;
#1 = ORIENTED_EDGE ( 'NONE', *, *, #111, .T. ) ;
#2 = AXIS2_PLACEMENT_3D ( 'NONE', #20, #86, #146 ) ;
#3 = CC_DESIGN_APPROVAL ( #52, ( #37 ) ) ;
#4 = EDGE_CURVE ( 'NONE', #62, #62, #63, .T. ) ;
#5 = DIRECTION ( 'NONE',  ( 3.491481338843133355E-15, -1.224646799147353207E-16, 1.000000000000000000 ) ) ;
#6 = CLOSED_SHELL ( 'NONE', ( #56, #85, #170, #190, #147 ) ) ;
#7 = VERTEX_POINT ( 'NONE', #107 ) ;
#8 = CARTESIAN_POINT ( 'NONE',  ( 1.326762908760390423E-13, 8.998558695971051224E-33, 38.00000000000000000 ) ) ;
#9 = EDGE_CURVE ( 'NONE', #194, #194, #103, .T. ) ;
#10 = MECHANICAL_CONTEXT ( 'NONE', #35, 'mechanical' ) ;
#11 = AXIS2_PLACEMENT_3D ( 'NONE', #213, #155, #93 ) ;
#12 = APPLICATION_PROTOCOL_DEFINITION ( 'international standard', 'config_control_design', 1994, #159 ) ;
#13 = CALENDAR_DATE ( 2021, 16, 11 ) ;
#14 = CC_DESIGN_PERSON_AND_ORGANIZATION_ASSIGNMENT ( #161, #160, ( #37 ) ) ;
#15 = PRODUCT_DEFINITION_SHAPE ( 'NONE', 'NONE',  #122 ) ;
#16 = COORDINATED_UNIVERSAL_TIME_OFFSET ( 1, 0, .AHEAD. ) ;
#17 = FACE_OUTER_BOUND ( 'NONE', #45, .T. ) ;
#18 = DIRECTION ( 'NONE',  ( 0.0000000000000000000, 0.0000000000000000000, 1.000000000000000000 ) ) ;
#19 = AXIS2_PLACEMENT_3D ( 'NONE', #134, #121, #94 ) ;
#20 = CARTESIAN_POINT ( 'NONE',  ( 2.755836190664958274E-14, -1.096208464112113704E-16, 7.893028554974538480 ) ) ;
#21 = CC_DESIGN_APPROVAL ( #59, ( #220 ) ) ;
#22 = ORIENTED_EDGE ( 'NONE', *, *, #31, .F. ) ;
#23 = EDGE_LOOP ( 'NONE', ( #188 ) ) ;
#24 = UNCERTAINTY_MEASURE_WITH_UNIT (LENGTH_MEASURE( 1.000000000000000082E-05 ), #109, 'distance_accuracy_value', 'NONE');
#25 = FACE_OUTER_BOUND ( 'NONE', #133, .T. ) ;
#26 = DIRECTION ( 'NONE',  ( -3.491481338843133355E-15, 1.224646799147353207E-16, -1.000000000000000000 ) ) ;
#27 = FACE_OUTER_BOUND ( 'NONE', #92, .T. ) ;
#28 = DIRECTION ( 'NONE',  ( 0.0000000000000000000, -1.000000000000000000, 0.0000000000000000000 ) ) ;
#29 = DIRECTION ( 'NONE',  ( -3.491481338843133355E-15, 1.224646799147353207E-16, -1.000000000000000000 ) ) ;
#30 = CARTESIAN_POINT ( 'NONE',  ( 1.316288464743861212E-13, -4.616918432785521081E-15, 37.69999999999999574 ) ) ;
#31 = EDGE_CURVE ( 'NONE', #65, #65, #67, .T. ) ;
#32 = COORDINATED_UNIVERSAL_TIME_OFFSET ( 1, 0, .AHEAD. ) ;
#33 = DIRECTION ( 'NONE',  ( 0.0000000000000000000, 1.000000000000000000, 0.0000000000000000000 ) ) ;
#34 = APPROVAL_ROLE ( '' ) ;
#35 = APPLICATION_CONTEXT ( 'configuration controlled 3d designs of mechanical parts and assemblies' ) ;
#36 = CC_DESIGN_PERSON_AND_ORGANIZATION_ASSIGNMENT ( #163, #143, ( #220 ) ) ;
#37 = PRODUCT_DEFINITION_FORMATION_WITH_SPECIFIED_SOURCE ( 'ANY', '', #42, .NOT_KNOWN. ) ;
#38 = CALENDAR_DATE ( 2021, 16, 11 ) ;
#39 = PERSON_AND_ORGANIZATION_ROLE ( 'creator' ) ;
#40 = APPROVAL_DATE_TIME ( #99, #52 ) ;
#41 = AXIS2_PLACEMENT_3D ( 'NONE', #50, #26, #193 ) ;
#42 = PRODUCT ( '964146', '964146', '', ( #10 ) ) ;
#43 = CARTESIAN_POINT ( 'NONE',  ( 2.444036937190193033E-14, -8.592624733039555931E-16, 6.999999999999999112 ) ) ;
#44 = ORIENTED_EDGE ( 'NONE', *, *, #208, .T. ) ;
#45 = EDGE_LOOP ( 'NONE', ( #206 ) ) ;
#46 = EDGE_LOOP ( 'NONE', ( #130 ) ) ;
#47 =( GEOMETRIC_REPRESENTATION_CONTEXT ( 3 ) GLOBAL_UNCERTAINTY_ASSIGNED_CONTEXT ( ( #24 ) ) GLOBAL_UNIT_ASSIGNED_CONTEXT ( ( #109, #49, #209 ) ) REPRESENTATION_CONTEXT ( 'NONE', 'WORKASPACE' ) );
#48 = CARTESIAN_POINT ( 'NONE',  ( -1.691860413684316488E-30, -1.449999999999999067, -4.845680814221099779E-16 ) ) ;
#49 =( NAMED_UNIT ( * ) PLANE_ANGLE_UNIT ( ) SI_UNIT ( $, .RADIAN. ) );
#50 = CARTESIAN_POINT ( 'NONE',  ( 0.0000000000000000000, 0.0000000000000000000, 0.0000000000000000000 ) ) ;
#51 = CARTESIAN_POINT ( 'NONE',  ( 2.444036937190193033E-14, -1.450000000000001732, 6.999999999999999112 ) ) ;
#52 = APPROVAL ( #100, 'UNSPECIFIED' ) ;
#53 = PERSON_AND_ORGANIZATION ( #87, #189 ) ;
#54 = DATE_AND_TIME ( #215, #186 ) ;
#55 = SHAPE_DEFINITION_REPRESENTATION ( #15, #173 ) ;
#56 = ADVANCED_FACE ( 'NONE', ( #78, #172 ), #108, .T. ) ;
#57 = AXIS2_PLACEMENT_3D ( 'NONE', #154, #135, #212 ) ;
#58 = EDGE_LOOP ( 'NONE', ( #22 ) ) ;
#59 = APPROVAL ( #69, 'UNSPECIFIED' ) ;
#60 = LOCAL_TIME ( 15, 59, 20.00000000000000000, #16 ) ;
#61 = EDGE_LOOP ( 'NONE', ( #89 ) ) ;
#62 = VERTEX_POINT ( 'NONE', #77 ) ;
#63 = CIRCLE ( 'NONE', #196, 1.450000000000000844 ) ;
#64 = DIRECTION ( 'NONE',  ( -4.275831445896958607E-31, -1.000000000000000000, -1.224646799147353207E-16 ) ) ;
#65 = VERTEX_POINT ( 'NONE', #51 ) ;
#66 = DIRECTION ( 'NONE',  ( -4.275831445896958607E-31, -1.000000000000000000, -1.224646799147353207E-16 ) ) ;
#67 = CIRCLE ( 'NONE', #123, 1.450000000000000844 ) ;
#68 = LOCAL_TIME ( 15, 59, 20.00000000000000000, #32 ) ;
#69 = APPROVAL_STATUS ( 'not_yet_approved' ) ;
#70 = AXIS2_PLACEMENT_3D ( 'NONE', #197, #158, #178 ) ;
#71 = APPLICATION_PROTOCOL_DEFINITION ( 'international standard', 'config_control_design', 1994, #35 ) ;
#72 = AXIS2_PLACEMENT_3D ( 'NONE', #221, #203, #166 ) ;
#73 = EDGE_LOOP ( 'NONE', ( #131 ) ) ;
#74 = MANIFOLD_SOLID_BREP ( 'Corps-Déplacer/Copier1[1]', #6 ) ;
#75 = DIRECTION ( 'NONE',  ( 0.0000000000000000000, 1.000000000000000000, 0.0000000000000000000 ) ) ;
#76 = DESIGN_CONTEXT ( 'detailed design', #159, 'design' ) ;
#77 = CARTESIAN_POINT ( 'NONE',  ( 2.444036937190193033E-14, -1.450000000000001732, 6.999999999999999112 ) ) ;
#78 = FACE_OUTER_BOUND ( 'NONE', #149, .T. ) ;
#79 = FACE_OUTER_BOUND ( 'NONE', #23, .T. ) ;
#80 = COORDINATED_UNIVERSAL_TIME_OFFSET ( 1, 0, .AHEAD. ) ;
#81 = CIRCLE ( 'NONE', #128, 1.499999999999996669 ) ;
#82 = COORDINATED_UNIVERSAL_TIME_OFFSET ( 1, 0, .AHEAD. ) ;
#83 = PERSON_AND_ORGANIZATION_ROLE ( 'design_supplier' ) ;
#84 = AXIS2_PLACEMENT_3D ( 'NONE', #216, #18, #200 ) ;
#85 = ADVANCED_FACE ( 'NONE', ( #175, #110 ), #214, .T. ) ;
#86 = DIRECTION ( 'NONE',  ( -3.491481338843133355E-15, 1.227517819005651059E-16, -1.000000000000000000 ) ) ;
#87 = PERSON ( 'UNSPECIFIED', 'UNSPECIFIED', 'UNSPECIFIED', ('UNSPECIFIED'), ('UNSPECIFIED'), ('UNSPECIFIED') ) ;
#88 = APPROVAL_PERSON_ORGANIZATION ( #164, #52, #98 ) ;
#89 = ORIENTED_EDGE ( 'NONE', *, *, #9, .F. ) ;
#90 = EDGE_LOOP ( 'NONE', ( #207 ) ) ;
#91 = PLANE ( 'NONE',  #171 ) ;
#92 = EDGE_LOOP ( 'NONE', ( #115 ) ) ;
#93 = DIRECTION ( 'NONE',  ( -4.346727293177451442E-31, -1.000000000000000000, -1.227517819005651059E-16 ) ) ;
#94 = DIRECTION ( 'NONE',  ( -4.275831445896958607E-31, -1.000000000000000000, -1.224646799147353207E-16 ) ) ;
#95 = CARTESIAN_POINT ( 'NONE',  ( 1.326762908760390423E-13, -4.653657836759941941E-15, 38.00000000000000000 ) ) ;
#96 = CARTESIAN_POINT ( 'NONE',  ( -9.620618722665301147E-31, 3.374458798749575219E-32, -2.755454716493771899E-16 ) ) ;
#97 = LOCAL_TIME ( 15, 59, 20.00000000000000000, #82 ) ;
#98 = APPROVAL_ROLE ( '' ) ;
#99 = DATE_AND_TIME ( #112, #60 ) ;
#100 = APPROVAL_STATUS ( 'not_yet_approved' ) ;
#101 = DATE_AND_TIME ( #184, #68 ) ;
#102 = PERSON_AND_ORGANIZATION ( #87, #189 ) ;
#103 = CIRCLE ( 'NONE', #2, 1.499999999999994893 ) ;
#104 = APPROVAL_PERSON_ORGANIZATION ( #183, #157, #34 ) ;
#105 = DIRECTION ( 'NONE',  ( 3.491481338843133355E-15, -1.227517819005651059E-16, 1.000000000000000000 ) ) ;
#106 = CARTESIAN_POINT ( 'NONE',  ( 2.444036937190193033E-14, -8.592624733039555931E-16, 6.999999999999999112 ) ) ;
#107 = CARTESIAN_POINT ( 'NONE',  ( 1.316288464743861212E-13, 1.499999999999992228, 37.69999999999999574 ) ) ;
#108 = CYLINDRICAL_SURFACE ( 'NONE', #41, 1.499999999999994893 ) ;
#109 =( LENGTH_UNIT ( ) NAMED_UNIT ( * ) SI_UNIT ( .MILLI., .METRE. ) );
#110 = FACE_BOUND ( 'NONE', #210, .T. ) ;
#111 = EDGE_CURVE ( 'NONE', #195, #195, #181, .T. ) ;
#112 = CALENDAR_DATE ( 2021, 16, 11 ) ;
#113 = LOCAL_TIME ( 15, 59, 20.00000000000000000, #80 ) ;
#114 = DATE_AND_TIME ( #38, #97 ) ;
#115 = ORIENTED_EDGE ( 'NONE', *, *, #4, .T. ) ;
#116 = CC_DESIGN_PERSON_AND_ORGANIZATION_ASSIGNMENT ( #53, #39, ( #122 ) ) ;
#117 = CC_DESIGN_SECURITY_CLASSIFICATION ( #220, ( #37 ) ) ;
#118 = PLANE ( 'NONE',  #19 ) ;
#119 = CC_DESIGN_PERSON_AND_ORGANIZATION_ASSIGNMENT ( #102, #180, ( #42 ) ) ;
#120 = CARTESIAN_POINT ( 'NONE',  ( 2.755836190664958274E-14, 1.499999999999994671, 7.893028554974538480 ) ) ;
#121 = DIRECTION ( 'NONE',  ( 3.491481338843133355E-15, -1.224646799147353207E-16, 1.000000000000000000 ) ) ;
#122 = PRODUCT_DEFINITION ( 'UNKNOWN', '', #37, #76 ) ;
#123 = AXIS2_PLACEMENT_3D ( 'NONE', #106, #136, #28 ) ;
#124 = APPROVAL_PERSON_ORGANIZATION ( #142, #59, #139 ) ;
#125 = CC_DESIGN_PERSON_AND_ORGANIZATION_ASSIGNMENT ( #202, #83, ( #37 ) ) ;
#126 = COORDINATED_UNIVERSAL_TIME_OFFSET ( 1, 0, .AHEAD. ) ;
#127 = APPROVAL_DATE_TIME ( #54, #59 ) ;
#128 = AXIS2_PLACEMENT_3D ( 'NONE', #30, #153, #75 ) ;
#129 = ORIENTED_EDGE ( 'NONE', *, *, #168, .F. ) ;
#130 = ORIENTED_EDGE ( 'NONE', *, *, #111, .F. ) ;
#131 = ORIENTED_EDGE ( 'NONE', *, *, #4, .F. ) ;
#132 = VERTEX_POINT ( 'NONE', #48 ) ;
#133 = EDGE_LOOP ( 'NONE', ( #151 ) ) ;
#134 = CARTESIAN_POINT ( 'NONE',  ( 2.444036937190193349E-14, 1.124819836996386774E-32, 7.000000000000000000 ) ) ;
#135 = DIRECTION ( 'NONE',  ( -3.491481338843133355E-15, 1.224646799147353207E-16, -1.000000000000000000 ) ) ;
#136 = DIRECTION ( 'NONE',  ( 3.491481338843133355E-15, -1.227517819005651059E-16, 1.000000000000000000 ) ) ;
#137 = CC_DESIGN_DATE_AND_TIME_ASSIGNMENT ( #165, #219, ( #220 ) ) ;
#138 = FACE_OUTER_BOUND ( 'NONE', #46, .T. ) ;
#139 = APPROVAL_ROLE ( '' ) ;
#140 = AXIS2_PLACEMENT_3D ( 'NONE', #95, #179, #33 ) ;
#141 = FACE_OUTER_BOUND ( 'NONE', #73, .T. ) ;
#142 = PERSON_AND_ORGANIZATION ( #87, #189 ) ;
#143 = PERSON_AND_ORGANIZATION_ROLE ( 'classification_officer' ) ;
#144 = CYLINDRICAL_SURFACE ( 'NONE', #72, 1.449999999999999956 ) ;
#145 = ADVANCED_FACE ( 'NONE', ( #17, #141 ), #144, .T. ) ;
#146 = DIRECTION ( 'NONE',  ( 0.0000000000000000000, 1.000000000000000000, 0.0000000000000000000 ) ) ;
#147 = ADVANCED_FACE ( 'NONE', ( #217 ), #152, .F. ) ;
#148 = EDGE_LOOP ( 'NONE', ( #129 ) ) ;
#149 = EDGE_LOOP ( 'NONE', ( #44 ) ) ;
#150 = DIRECTION ( 'NONE',  ( 3.491481338843133355E-15, -1.224646799147353207E-16, 1.000000000000000000 ) ) ;
#151 = ORIENTED_EDGE ( 'NONE', *, *, #9, .T. ) ;
#152 = PLANE ( 'NONE',  #162 ) ;
#153 = DIRECTION ( 'NONE',  ( -3.491481338843133355E-15, 1.224646799147353207E-16, -1.000000000000000000 ) ) ;
#154 = CARTESIAN_POINT ( 'NONE',  ( 1.326762908760390423E-13, -4.653657836759941941E-15, 38.00000000000000000 ) ) ;
#155 = DIRECTION ( 'NONE',  ( 3.491481338843133355E-15, -1.227517819005651059E-16, 1.000000000000000000 ) ) ;
#156 = CIRCLE ( 'NONE', #70, 1.449999999999999067 ) ;
#157 = APPROVAL ( #199, 'UNSPECIFIED' ) ;
#158 = DIRECTION ( 'NONE',  ( 3.491481338843133355E-15, -1.227517819005651059E-16, 1.000000000000000000 ) ) ;
#159 = APPLICATION_CONTEXT ( 'configuration controlled 3d designs of mechanical parts and assemblies' ) ;
#160 = PERSON_AND_ORGANIZATION_ROLE ( 'creator' ) ;
#161 = PERSON_AND_ORGANIZATION ( #87, #189 ) ;
#162 = AXIS2_PLACEMENT_3D ( 'NONE', #191, #5, #64 ) ;
#163 = PERSON_AND_ORGANIZATION ( #87, #189 ) ;
#164 = PERSON_AND_ORGANIZATION ( #87, #189 ) ;
#165 = DATE_AND_TIME ( #13, #113 ) ;
#166 = DIRECTION ( 'NONE',  ( -4.285855558155652404E-31, -1.000000000000000000, -1.227517819005651059E-16 ) ) ;
#167 = CLOSED_SHELL ( 'NONE', ( #187, #145, #201 ) ) ;
#168 = EDGE_CURVE ( 'NONE', #132, #132, #156, .T. ) ;
#169 = DIRECTION ( 'NONE',  ( 0.0000000000000000000, -1.000000000000000000, 0.0000000000000000000 ) ) ;
#170 = ADVANCED_FACE ( 'NONE', ( #138 ), #91, .F. ) ;
#171 = AXIS2_PLACEMENT_3D ( 'NONE', #8, #29, #174 ) ;
#172 = FACE_OUTER_BOUND ( 'NONE', #61, .T. ) ;
#173 = ADVANCED_BREP_SHAPE_REPRESENTATION ( '964146', ( #74, #222, #84 ), #47 ) ;
#174 = DIRECTION ( 'NONE',  ( 4.275831445896958607E-31, 1.000000000000000000, 1.224646799147353207E-16 ) ) ;
#175 = FACE_OUTER_BOUND ( 'NONE', #90, .T. ) ;
#176 = CC_DESIGN_DATE_AND_TIME_ASSIGNMENT ( #101, #204, ( #122 ) ) ;
#177 = PLANE ( 'NONE',  #182 ) ;
#178 = DIRECTION ( 'NONE',  ( -4.285855558155652404E-31, -1.000000000000000000, -1.227517819005651305E-16 ) ) ;
#179 = DIRECTION ( 'NONE',  ( -3.491481338843133355E-15, 1.224646799147353207E-16, -1.000000000000000000 ) ) ;
#180 = PERSON_AND_ORGANIZATION_ROLE ( 'design_owner' ) ;
#181 = CIRCLE ( 'NONE', #57, 1.199999999999996403 ) ;
#182 = AXIS2_PLACEMENT_3D ( 'NONE', #96, #150, #66 ) ;
#183 = PERSON_AND_ORGANIZATION ( #87, #189 ) ;
#184 = CALENDAR_DATE ( 2021, 16, 11 ) ;
#185 = PRODUCT_RELATED_PRODUCT_CATEGORY ( 'detail', '', ( #42 ) ) ;
#186 = LOCAL_TIME ( 15, 59, 20.00000000000000000, #126 ) ;
#187 = ADVANCED_FACE ( 'NONE', ( #27 ), #118, .T. ) ;
#188 = ORIENTED_EDGE ( 'NONE', *, *, #31, .T. ) ;
#189 = ORGANIZATION ( 'UNSPECIFIED', 'UNSPECIFIED', '' ) ;
#190 = ADVANCED_FACE ( 'NONE', ( #79, #25 ), #198, .F. ) ;
#191 = CARTESIAN_POINT ( 'NONE',  ( 2.444036937190193349E-14, 1.124819836996386774E-32, 7.000000000000000000 ) ) ;
#192 = CARTESIAN_POINT ( 'NONE',  ( 1.326762908760390423E-13, 1.199999999999991962, 38.00000000000000000 ) ) ;
#193 = DIRECTION ( 'NONE',  ( 4.275831445896958607E-31, 1.000000000000000000, 1.224646799147353207E-16 ) ) ;
#194 = VERTEX_POINT ( 'NONE', #120 ) ;
#195 = VERTEX_POINT ( 'NONE', #192 ) ;
#196 = AXIS2_PLACEMENT_3D ( 'NONE', #43, #105, #169 ) ;
#197 = CARTESIAN_POINT ( 'NONE',  ( -1.070411357751747393E-30, 1.508391285217714280E-32, -3.065779976662906065E-16 ) ) ;
#198 = TOROIDAL_SURFACE ( 'NONE', #11, 9.449999999999999289, 8.000000000000000000 ) ;
#199 = APPROVAL_STATUS ( 'not_yet_approved' ) ;
#200 = DIRECTION ( 'NONE',  ( 1.000000000000000000, 0.0000000000000000000, 0.0000000000000000000 ) ) ;
#201 = ADVANCED_FACE ( 'NONE', ( #211 ), #177, .F. ) ;
#202 = PERSON_AND_ORGANIZATION ( #87, #189 ) ;
#203 = DIRECTION ( 'NONE',  ( 3.491481338843133355E-15, -1.227517819005651059E-16, 1.000000000000000000 ) ) ;
#204 = DATE_TIME_ROLE ( 'creation_date' ) ;
#205 = CC_DESIGN_APPROVAL ( #157, ( #122 ) ) ;
#206 = ORIENTED_EDGE ( 'NONE', *, *, #168, .T. ) ;
#207 = ORIENTED_EDGE ( 'NONE', *, *, #208, .F. ) ;
#208 = EDGE_CURVE ( 'NONE', #7, #7, #81, .T. ) ;
#209 =( NAMED_UNIT ( * ) SI_UNIT ( $, .STERADIAN. ) SOLID_ANGLE_UNIT ( ) );
#210 = EDGE_LOOP ( 'NONE', ( #1 ) ) ;
#211 = FACE_OUTER_BOUND ( 'NONE', #148, .T. ) ;
#212 = DIRECTION ( 'NONE',  ( 0.0000000000000000000, 1.000000000000000000, 0.0000000000000000000 ) ) ;
#213 = CARTESIAN_POINT ( 'NONE',  ( 2.444036937190193033E-14, 0.0000000000000000000, 6.999999999999999112 ) ) ;
#214 = CONICAL_SURFACE ( 'NONE', #140, 1.199999999999996403, 0.7853981633974461696 ) ;
#215 = CALENDAR_DATE ( 2021, 16, 11 ) ;
#216 = CARTESIAN_POINT ( 'NONE',  ( 0.0000000000000000000, 0.0000000000000000000, 0.0000000000000000000 ) ) ;
#217 = FACE_OUTER_BOUND ( 'NONE', #58, .T. ) ;
#218 = SECURITY_CLASSIFICATION_LEVEL ( 'unclassified' ) ;
#219 = DATE_TIME_ROLE ( 'classification_date' ) ;
#220 = SECURITY_CLASSIFICATION ( '', '', #218 ) ;
#221 = CARTESIAN_POINT ( 'NONE',  ( -6.413731847436034514E-31, 0.0000000000000000000, -1.836965810494968570E-16 ) ) ;
#222 = MANIFOLD_SOLID_BREP ( 'Corps-Déplacer/Copier1[2]', #167 ) ;
#223 = APPROVAL_DATE_TIME ( #114, #157 ) ;
ENDSEC;
END-ISO-10303-21;
