ISO-10303-21;
HEADER;
FILE_DESCRIPTION (( 'STEP AP203' ),
    '1' );
FILE_NAME ('964145.step',
    '2021-11-16T14:59:19',
    ( '' ),
    ( '' ),
    'SwSTEP 2.0',
    'SolidWorks 2019',
    '' );
FILE_SCHEMA (( 'CONFIG_CONTROL_DESIGN' ));
ENDSEC;

DATA;
#1 = CARTESIAN_POINT ( 'NONE',  ( 1.326762908760390423E-13, 8.998558695971030697E-33, 38.00000000000000000 ) ) ;
#2 = PERSON_AND_ORGANIZATION ( #104, #100 ) ;
#3 = AXIS2_PLACEMENT_3D ( 'NONE', #145, #197, #47 ) ;
#4 = ADVANCED_FACE ( 'NONE', ( #173 ), #18, .F. ) ;
#5 = FACE_OUTER_BOUND ( 'NONE', #23, .T. ) ;
#6 = APPROVAL_PERSON_ORGANIZATION ( #206, #147, #24 ) ;
#7 = DIRECTION ( 'NONE',  ( 3.491481338843133355E-15, -1.224646799147353207E-16, 1.000000000000000000 ) ) ;
#8 = CC_DESIGN_APPROVAL ( #151, ( #40 ) ) ;
#9 = DIRECTION ( 'NONE',  ( 3.491481338843133355E-15, -1.227517819005651059E-16, 1.000000000000000000 ) ) ;
#10 = CC_DESIGN_DATE_AND_TIME_ASSIGNMENT ( #38, #223, ( #169 ) ) ;
#11 = DIRECTION ( 'NONE',  ( 0.0000000000000000000, 1.000000000000000000, 0.0000000000000000000 ) ) ;
#12 = VERTEX_POINT ( 'NONE', #15 ) ;
#13 = ORIENTED_EDGE ( 'NONE', *, *, #32, .F. ) ;
#14 = AXIS2_PLACEMENT_3D ( 'NONE', #149, #215, #185 ) ;
#15 = CARTESIAN_POINT ( 'NONE',  ( -1.200039556283582148E-30, -1.399999999999999245, -3.437049893215821189E-16 ) ) ;
#16 = EDGE_LOOP ( 'NONE', ( #66 ) ) ;
#17 = PERSON_AND_ORGANIZATION ( #104, #100 ) ;
#18 = PLANE ( 'NONE',  #115 ) ;
#19 = APPROVAL_ROLE ( '' ) ;
#20 = DIRECTION ( 'NONE',  ( 1.000000000000000000, 0.0000000000000000000, 0.0000000000000000000 ) ) ;
#21 = CIRCLE ( 'NONE', #152, 1.399999999999999245 ) ;
#22 = APPLICATION_CONTEXT ( 'configuration controlled 3d designs of mechanical parts and assemblies' ) ;
#23 = EDGE_LOOP ( 'NONE', ( #170 ) ) ;
#24 = APPROVAL_ROLE ( '' ) ;
#25 = UNCERTAINTY_MEASURE_WITH_UNIT (LENGTH_MEASURE( 1.000000000000000082E-05 ), #87, 'distance_accuracy_value', 'NONE');
#26 = CC_DESIGN_APPROVAL ( #147, ( #162 ) ) ;
#27 = AXIS2_PLACEMENT_3D ( 'NONE', #153, #65, #195 ) ;
#28 = FACE_OUTER_BOUND ( 'NONE', #133, .T. ) ;
#29 = VERTEX_POINT ( 'NONE', #94 ) ;
#30 = APPROVAL_PERSON_ORGANIZATION ( #2, #151, #19 ) ;
#31 = CARTESIAN_POINT ( 'NONE',  ( 2.884295982341878475E-14, -1.547841075046880255E-16, 8.260952021291801728 ) ) ;
#32 = EDGE_CURVE ( 'NONE', #95, #95, #204, .T. ) ;
#33 = CARTESIAN_POINT ( 'NONE',  ( 1.326762908760390423E-13, 1.199999999999989297, 38.00000000000000000 ) ) ;
#34 = MECHANICAL_CONTEXT ( 'NONE', #22, 'mechanical' ) ;
#35 = ORIENTED_EDGE ( 'NONE', *, *, #189, .T. ) ;
#36 = DATE_TIME_ROLE ( 'creation_date' ) ;
#37 = EDGE_LOOP ( 'NONE', ( #130 ) ) ;
#38 = DATE_AND_TIME ( #52, #136 ) ;
#39 = APPROVAL ( #69, 'UNSPECIFIED' ) ;
#40 = PRODUCT_DEFINITION_FORMATION_WITH_SPECIFIED_SOURCE ( 'ANY', '', #42, .NOT_KNOWN. ) ;
#41 = DATE_AND_TIME ( #116, #129 ) ;
#42 = PRODUCT ( '964145', '964145', '', ( #34 ) ) ;
#43 = ADVANCED_FACE ( 'NONE', ( #210 ), #160, .F. ) ;
#44 = DIRECTION ( 'NONE',  ( -4.275831445896958607E-31, -1.000000000000000000, -1.224646799147353207E-16 ) ) ;
#45 = ADVANCED_FACE ( 'NONE', ( #193, #102 ), #192, .F. ) ;
#46 = DIRECTION ( 'NONE',  ( 0.0000000000000000000, 1.000000000000000000, 0.0000000000000000000 ) ) ;
#47 = DIRECTION ( 'NONE',  ( 0.0000000000000000000, -1.000000000000000000, 0.0000000000000000000 ) ) ;
#48 = AXIS2_PLACEMENT_3D ( 'NONE', #163, #124, #75 ) ;
#49 = CARTESIAN_POINT ( 'NONE',  ( 0.0000000000000000000, 0.0000000000000000000, 0.0000000000000000000 ) ) ;
#50 =( NAMED_UNIT ( * ) SI_UNIT ( $, .STERADIAN. ) SOLID_ANGLE_UNIT ( ) );
#51 = AXIS2_PLACEMENT_3D ( 'NONE', #31, #196, #46 ) ;
#52 = CALENDAR_DATE ( 2021, 16, 11 ) ;
#53 = CLOSED_SHELL ( 'NONE', ( #92, #179, #55 ) ) ;
#54 = DIRECTION ( 'NONE',  ( -4.275831445896958607E-31, -1.000000000000000000, -1.224646799147353207E-16 ) ) ;
#55 = ADVANCED_FACE ( 'NONE', ( #5 ), #77, .F. ) ;
#56 = CARTESIAN_POINT ( 'NONE',  ( 0.0000000000000000000, 0.0000000000000000000, 0.0000000000000000000 ) ) ;
#57 = CC_DESIGN_PERSON_AND_ORGANIZATION_ASSIGNMENT ( #17, #86, ( #162 ) ) ;
#58 = APPROVAL_DATE_TIME ( #73, #39 ) ;
#59 = CARTESIAN_POINT ( 'NONE',  ( 1.316288464743861212E-13, 1.499999999999989120, 37.69999999999999574 ) ) ;
#60 = AXIS2_PLACEMENT_3D ( 'NONE', #200, #150, #148 ) ;
#61 = APPLICATION_CONTEXT ( 'configuration controlled 3d designs of mechanical parts and assemblies' ) ;
#62 = FACE_OUTER_BOUND ( 'NONE', #37, .T. ) ;
#63 = EDGE_LOOP ( 'NONE', ( #155 ) ) ;
#64 = DIRECTION ( 'NONE',  ( -3.491481338843133355E-15, 1.224646799147353207E-16, -1.000000000000000000 ) ) ;
#65 = DIRECTION ( 'NONE',  ( -3.491481338843133355E-15, 1.224646799147353207E-16, -1.000000000000000000 ) ) ;
#66 = ORIENTED_EDGE ( 'NONE', *, *, #219, .T. ) ;
#67 = ADVANCED_BREP_SHAPE_REPRESENTATION ( '964145', ( #207, #125, #187 ), #198 ) ;
#68 = CC_DESIGN_DATE_AND_TIME_ASSIGNMENT ( #41, #36, ( #162 ) ) ;
#69 = APPROVAL_STATUS ( 'not_yet_approved' ) ;
#70 = DIRECTION ( 'NONE',  ( 4.275831445896958607E-31, 1.000000000000000000, 1.224646799147353207E-16 ) ) ;
#71 = PERSON_AND_ORGANIZATION ( #104, #100 ) ;
#72 = CALENDAR_DATE ( 2021, 16, 11 ) ;
#73 = DATE_AND_TIME ( #72, #91 ) ;
#74 = AXIS2_PLACEMENT_3D ( 'NONE', #164, #93, #44 ) ;
#75 = DIRECTION ( 'NONE',  ( -4.285855558155652404E-31, -1.000000000000000000, -1.227517819005651305E-16 ) ) ;
#76 = DIRECTION ( 'NONE',  ( -4.285855558155653280E-31, -1.000000000000000000, -1.227517819005651059E-16 ) ) ;
#77 = PLANE ( 'NONE',  #74 ) ;
#78 = CC_DESIGN_APPROVAL ( #39, ( #169 ) ) ;
#79 = DIRECTION ( 'NONE',  ( 3.491481338843133355E-15, -1.224646799147353207E-16, 1.000000000000000000 ) ) ;
#80 = CARTESIAN_POINT ( 'NONE',  ( -6.413731847436034514E-31, 0.0000000000000000000, -1.836965810494968570E-16 ) ) ;
#81 = EDGE_LOOP ( 'NONE', ( #13 ) ) ;
#82 = APPROVAL_DATE_TIME ( #134, #151 ) ;
#83 = CALENDAR_DATE ( 2021, 16, 11 ) ;
#84 = ORIENTED_EDGE ( 'NONE', *, *, #32, .T. ) ;
#85 = AXIS2_PLACEMENT_3D ( 'NONE', #80, #128, #76 ) ;
#86 = PERSON_AND_ORGANIZATION_ROLE ( 'creator' ) ;
#87 =( LENGTH_UNIT ( ) NAMED_UNIT ( * ) SI_UNIT ( .MILLI., .METRE. ) );
#88 = APPROVAL_STATUS ( 'not_yet_approved' ) ;
#89 = CONICAL_SURFACE ( 'NONE', #108, 1.199999999999993738, 0.7853981633974453924 ) ;
#90 = CC_DESIGN_PERSON_AND_ORGANIZATION_ASSIGNMENT ( #220, #176, ( #40 ) ) ;
#91 = LOCAL_TIME ( 15, 59, 19.00000000000000000, #209 ) ;
#92 = ADVANCED_FACE ( 'NONE', ( #62 ), #184, .T. ) ;
#93 = DIRECTION ( 'NONE',  ( 3.491481338843133355E-15, -1.224646799147353207E-16, 1.000000000000000000 ) ) ;
#94 = CARTESIAN_POINT ( 'NONE',  ( 2.444036937190193033E-14, -1.400000000000000133, 6.999999999999999112 ) ) ;
#95 = VERTEX_POINT ( 'NONE', #33 ) ;
#96 = EDGE_LOOP ( 'NONE', ( #172 ) ) ;
#97 = DIRECTION ( 'NONE',  ( -3.491481338843133355E-15, 1.224646799147353207E-16, -1.000000000000000000 ) ) ;
#98 = ADVANCED_FACE ( 'NONE', ( #111, #109 ), #89, .T. ) ;
#99 = COORDINATED_UNIVERSAL_TIME_OFFSET ( 1, 0, .AHEAD. ) ;
#100 = ORGANIZATION ( 'UNSPECIFIED', 'UNSPECIFIED', '' ) ;
#101 = APPLICATION_PROTOCOL_DEFINITION ( 'international standard', 'config_control_design', 1994, #22 ) ;
#102 = FACE_OUTER_BOUND ( 'NONE', #16, .T. ) ;
#103 = APPROVAL_STATUS ( 'not_yet_approved' ) ;
#104 = PERSON ( 'UNSPECIFIED', 'UNSPECIFIED', 'UNSPECIFIED', ('UNSPECIFIED'), ('UNSPECIFIED'), ('UNSPECIFIED') ) ;
#105 = CC_DESIGN_PERSON_AND_ORGANIZATION_ASSIGNMENT ( #157, #135, ( #169 ) ) ;
#106 = DIRECTION ( 'NONE',  ( -4.275831445896958607E-31, -1.000000000000000000, -1.224646799147353207E-16 ) ) ;
#107 = CARTESIAN_POINT ( 'NONE',  ( 2.444036937190193033E-14, -1.400000000000000133, 6.999999999999999112 ) ) ;
#108 = AXIS2_PLACEMENT_3D ( 'NONE', #126, #64, #11 ) ;
#109 = FACE_BOUND ( 'NONE', #112, .T. ) ;
#110 = EDGE_LOOP ( 'NONE', ( #221 ) ) ;
#111 = FACE_OUTER_BOUND ( 'NONE', #208, .T. ) ;
#112 = EDGE_LOOP ( 'NONE', ( #84 ) ) ;
#113 = CARTESIAN_POINT ( 'NONE',  ( 2.884295982341878475E-14, 1.499999999999991562, 8.260952021291801728 ) ) ;
#114 = AXIS2_PLACEMENT_3D ( 'NONE', #165, #7, #106 ) ;
#115 = AXIS2_PLACEMENT_3D ( 'NONE', #205, #79, #54 ) ;
#116 = CALENDAR_DATE ( 2021, 16, 11 ) ;
#117 = DIRECTION ( 'NONE',  ( 0.0000000000000000000, 0.0000000000000000000, 1.000000000000000000 ) ) ;
#118 = LOCAL_TIME ( 15, 59, 19.00000000000000000, #99 ) ;
#119 = PERSON_AND_ORGANIZATION ( #104, #100 ) ;
#120 = DIRECTION ( 'NONE',  ( -3.491481338843133355E-15, 1.224646799147353207E-16, -1.000000000000000000 ) ) ;
#121 = PRODUCT_DEFINITION_SHAPE ( 'NONE', 'NONE',  #162 ) ;
#122 = CC_DESIGN_PERSON_AND_ORGANIZATION_ASSIGNMENT ( #71, #156, ( #40 ) ) ;
#123 = AXIS2_PLACEMENT_3D ( 'NONE', #49, #97, #213 ) ;
#124 = DIRECTION ( 'NONE',  ( 3.491481338843133355E-15, -1.227517819005651059E-16, 1.000000000000000000 ) ) ;
#125 = MANIFOLD_SOLID_BREP ( 'Corps-Déplacer/Copier1[2]', #53 ) ;
#126 = CARTESIAN_POINT ( 'NONE',  ( 1.326762908760390423E-13, -4.653657836759941941E-15, 38.00000000000000000 ) ) ;
#127 = CYLINDRICAL_SURFACE ( 'NONE', #85, 1.399999999999999245 ) ;
#128 = DIRECTION ( 'NONE',  ( 3.491481338843133355E-15, -1.227517819005651059E-16, 1.000000000000000000 ) ) ;
#129 = LOCAL_TIME ( 15, 59, 19.00000000000000000, #194 ) ;
#130 = ORIENTED_EDGE ( 'NONE', *, *, #181, .T. ) ;
#131 = CYLINDRICAL_SURFACE ( 'NONE', #123, 1.499999999999991784 ) ;
#132 = EDGE_CURVE ( 'NONE', #166, #166, #21, .T. ) ;
#133 = EDGE_LOOP ( 'NONE', ( #35 ) ) ;
#134 = DATE_AND_TIME ( #83, #158 ) ;
#135 = PERSON_AND_ORGANIZATION_ROLE ( 'classification_officer' ) ;
#136 = LOCAL_TIME ( 15, 59, 19.00000000000000000, #203 ) ;
#137 = APPLICATION_PROTOCOL_DEFINITION ( 'international standard', 'config_control_design', 1994, #61 ) ;
#138 = APPROVAL_ROLE ( '' ) ;
#139 = CC_DESIGN_PERSON_AND_ORGANIZATION_ASSIGNMENT ( #119, #188, ( #42 ) ) ;
#140 = DESIGN_CONTEXT ( 'detailed design', #61, 'design' ) ;
#141 = EDGE_CURVE ( 'NONE', #12, #12, #143, .T. ) ;
#142 = SHAPE_DEFINITION_REPRESENTATION ( #121, #67 ) ;
#143 = CIRCLE ( 'NONE', #48, 1.399999999999999245 ) ;
#144 = CC_DESIGN_SECURITY_CLASSIFICATION ( #169, ( #40 ) ) ;
#145 = CARTESIAN_POINT ( 'NONE',  ( 2.444036937190193033E-14, -8.592624733039555931E-16, 6.999999999999999112 ) ) ;
#146 = AXIS2_PLACEMENT_3D ( 'NONE', #1, #120, #70 ) ;
#147 = APPROVAL ( #103, 'UNSPECIFIED' ) ;
#148 = DIRECTION ( 'NONE',  ( -4.346902211956250045E-31, -1.000000000000000000, -1.227517819005651059E-16 ) ) ;
#149 = CARTESIAN_POINT ( 'NONE',  ( 1.316288464743861212E-13, -4.616918432785521081E-15, 37.69999999999999574 ) ) ;
#150 = DIRECTION ( 'NONE',  ( 3.491481338843133355E-15, -1.227517819005651059E-16, 1.000000000000000000 ) ) ;
#151 = APPROVAL ( #88, 'UNSPECIFIED' ) ;
#152 = AXIS2_PLACEMENT_3D ( 'NONE', #182, #9, #168 ) ;
#153 = CARTESIAN_POINT ( 'NONE',  ( 1.326762908760390423E-13, -4.653657836759941941E-15, 38.00000000000000000 ) ) ;
#154 = VERTEX_POINT ( 'NONE', #59 ) ;
#155 = ORIENTED_EDGE ( 'NONE', *, *, #132, .F. ) ;
#156 = PERSON_AND_ORGANIZATION_ROLE ( 'creator' ) ;
#157 = PERSON_AND_ORGANIZATION ( #104, #100 ) ;
#158 = LOCAL_TIME ( 15, 59, 19.00000000000000000, #218 ) ;
#159 = PERSON_AND_ORGANIZATION ( #104, #100 ) ;
#160 = PLANE ( 'NONE',  #146 ) ;
#161 =( NAMED_UNIT ( * ) PLANE_ANGLE_UNIT ( ) SI_UNIT ( $, .RADIAN. ) );
#162 = PRODUCT_DEFINITION ( 'UNKNOWN', '', #40, #140 ) ;
#163 = CARTESIAN_POINT ( 'NONE',  ( -6.000197781417910738E-31, -1.453882709197869492E-33, -1.718524946607910348E-16 ) ) ;
#164 = CARTESIAN_POINT ( 'NONE',  ( -1.282754905350004587E-30, 4.499298539707956128E-32, -3.673956068672651857E-16 ) ) ;
#165 = CARTESIAN_POINT ( 'NONE',  ( 2.444036937190193349E-14, 1.124819836996384448E-32, 7.000000000000000000 ) ) ;
#166 = VERTEX_POINT ( 'NONE', #107 ) ;
#167 = ORIENTED_EDGE ( 'NONE', *, *, #189, .F. ) ;
#168 = DIRECTION ( 'NONE',  ( 0.0000000000000000000, -1.000000000000000000, 0.0000000000000000000 ) ) ;
#169 = SECURITY_CLASSIFICATION ( '', '', #190 ) ;
#170 = ORIENTED_EDGE ( 'NONE', *, *, #141, .F. ) ;
#171 = CALENDAR_DATE ( 2021, 16, 11 ) ;
#172 = ORIENTED_EDGE ( 'NONE', *, *, #141, .T. ) ;
#173 = FACE_OUTER_BOUND ( 'NONE', #63, .T. ) ;
#174 = DATE_AND_TIME ( #171, #118 ) ;
#175 = VERTEX_POINT ( 'NONE', #113 ) ;
#176 = PERSON_AND_ORGANIZATION_ROLE ( 'design_supplier' ) ;
#177 = ADVANCED_FACE ( 'NONE', ( #28, #199 ), #131, .T. ) ;
#178 = CIRCLE ( 'NONE', #51, 1.499999999999991784 ) ;
#179 = ADVANCED_FACE ( 'NONE', ( #186, #183 ), #127, .T. ) ;
#180 = CIRCLE ( 'NONE', #3, 1.399999999999999245 ) ;
#181 = EDGE_CURVE ( 'NONE', #29, #29, #180, .T. ) ;
#182 = CARTESIAN_POINT ( 'NONE',  ( 2.444036937190193033E-14, -8.592624733039555931E-16, 6.999999999999999112 ) ) ;
#183 = FACE_OUTER_BOUND ( 'NONE', #191, .T. ) ;
#184 = PLANE ( 'NONE',  #114 ) ;
#185 = DIRECTION ( 'NONE',  ( 0.0000000000000000000, 1.000000000000000000, 0.0000000000000000000 ) ) ;
#186 = FACE_OUTER_BOUND ( 'NONE', #96, .T. ) ;
#187 = AXIS2_PLACEMENT_3D ( 'NONE', #56, #117, #20 ) ;
#188 = PERSON_AND_ORGANIZATION_ROLE ( 'design_owner' ) ;
#189 = EDGE_CURVE ( 'NONE', #154, #154, #222, .T. ) ;
#190 = SECURITY_CLASSIFICATION_LEVEL ( 'unclassified' ) ;
#191 = EDGE_LOOP ( 'NONE', ( #202 ) ) ;
#192 = TOROIDAL_SURFACE ( 'NONE', #60, 9.399999999999998579, 8.000000000000000000 ) ;
#193 = FACE_OUTER_BOUND ( 'NONE', #217, .T. ) ;
#194 = COORDINATED_UNIVERSAL_TIME_OFFSET ( 1, 0, .AHEAD. ) ;
#195 = DIRECTION ( 'NONE',  ( 0.0000000000000000000, 1.000000000000000000, 0.0000000000000000000 ) ) ;
#196 = DIRECTION ( 'NONE',  ( -3.491481338843133355E-15, 1.227517819005651059E-16, -1.000000000000000000 ) ) ;
#197 = DIRECTION ( 'NONE',  ( 3.491481338843133355E-15, -1.227517819005651059E-16, 1.000000000000000000 ) ) ;
#198 =( GEOMETRIC_REPRESENTATION_CONTEXT ( 3 ) GLOBAL_UNCERTAINTY_ASSIGNED_CONTEXT ( ( #25 ) ) GLOBAL_UNIT_ASSIGNED_CONTEXT ( ( #87, #161, #50 ) ) REPRESENTATION_CONTEXT ( 'NONE', 'WORKASPACE' ) );
#199 = FACE_OUTER_BOUND ( 'NONE', #110, .T. ) ;
#200 = CARTESIAN_POINT ( 'NONE',  ( 2.444036937190193033E-14, 0.0000000000000000000, 6.999999999999999112 ) ) ;
#201 = APPROVAL_DATE_TIME ( #174, #147 ) ;
#202 = ORIENTED_EDGE ( 'NONE', *, *, #181, .F. ) ;
#203 = COORDINATED_UNIVERSAL_TIME_OFFSET ( 1, 0, .AHEAD. ) ;
#204 = CIRCLE ( 'NONE', #27, 1.199999999999993738 ) ;
#205 = CARTESIAN_POINT ( 'NONE',  ( 2.444036937190193349E-14, 1.124819836996384448E-32, 7.000000000000000000 ) ) ;
#206 = PERSON_AND_ORGANIZATION ( #104, #100 ) ;
#207 = MANIFOLD_SOLID_BREP ( 'Corps-Déplacer/Copier1[1]', #212 ) ;
#208 = EDGE_LOOP ( 'NONE', ( #167 ) ) ;
#209 = COORDINATED_UNIVERSAL_TIME_OFFSET ( 1, 0, .AHEAD. ) ;
#210 = FACE_OUTER_BOUND ( 'NONE', #81, .T. ) ;
#211 = APPROVAL_PERSON_ORGANIZATION ( #159, #39, #138 ) ;
#212 = CLOSED_SHELL ( 'NONE', ( #177, #98, #43, #45, #4 ) ) ;
#213 = DIRECTION ( 'NONE',  ( 4.275831445896958607E-31, 1.000000000000000000, 1.224646799147353207E-16 ) ) ;
#214 = PRODUCT_RELATED_PRODUCT_CATEGORY ( 'detail', '', ( #42 ) ) ;
#215 = DIRECTION ( 'NONE',  ( -3.491481338843133355E-15, 1.224646799147353207E-16, -1.000000000000000000 ) ) ;
#216 = ORIENTED_EDGE ( 'NONE', *, *, #132, .T. ) ;
#217 = EDGE_LOOP ( 'NONE', ( #216 ) ) ;
#218 = COORDINATED_UNIVERSAL_TIME_OFFSET ( 1, 0, .AHEAD. ) ;
#219 = EDGE_CURVE ( 'NONE', #175, #175, #178, .T. ) ;
#220 = PERSON_AND_ORGANIZATION ( #104, #100 ) ;
#221 = ORIENTED_EDGE ( 'NONE', *, *, #219, .F. ) ;
#222 = CIRCLE ( 'NONE', #14, 1.499999999999993783 ) ;
#223 = DATE_TIME_ROLE ( 'classification_date' ) ;
ENDSEC;
END-ISO-10303-21;
