ISO-10303-21;
HEADER;
FILE_DESCRIPTION (( 'STEP AP203' ),
    '1' );
FILE_NAME ('964144.step',
    '2021-11-16T14:59:19',
    ( '' ),
    ( '' ),
    'SwSTEP 2.0',
    'SolidWorks 2019',
    '' );
FILE_SCHEMA (( 'CONFIG_CONTROL_DESIGN' ));
ENDSEC;

DATA;
#1 = DIRECTION ( 'NONE',  ( -4.275831445896958607E-31, -1.000000000000000000, -1.224646799147353207E-16 ) ) ;
#2 = PERSON_AND_ORGANIZATION ( #157, #39 ) ;
#3 = SECURITY_CLASSIFICATION ( '', '', #132 ) ;
#4 = MECHANICAL_CONTEXT ( 'NONE', #160, 'mechanical' ) ;
#5 = CC_DESIGN_PERSON_AND_ORGANIZATION_ASSIGNMENT ( #218, #103, ( #188 ) ) ;
#6 = CIRCLE ( 'NONE', #85, 1.499999999999991784 ) ;
#7 = LOCAL_TIME ( 15, 59, 19.00000000000000000, #79 ) ;
#8 = CC_DESIGN_DATE_AND_TIME_ASSIGNMENT ( #46, #27, ( #211 ) ) ;
#9 = DIRECTION ( 'NONE',  ( 3.491481338843133355E-15, -1.227517819005651059E-16, 1.000000000000000000 ) ) ;
#10 = AXIS2_PLACEMENT_3D ( 'NONE', #82, #135, #186 ) ;
#11 = COORDINATED_UNIVERSAL_TIME_OFFSET ( 1, 0, .AHEAD. ) ;
#12 = VERTEX_POINT ( 'NONE', #151 ) ;
#13 = CARTESIAN_POINT ( 'NONE',  ( 0.0000000000000000000, 0.0000000000000000000, 0.0000000000000000000 ) ) ;
#14 = PERSON_AND_ORGANIZATION_ROLE ( 'creator' ) ;
#15 = DIRECTION ( 'NONE',  ( 3.491481338843133355E-15, -1.227517819005651059E-16, 1.000000000000000000 ) ) ;
#16 = PERSON_AND_ORGANIZATION_ROLE ( 'creator' ) ;
#17 = DIRECTION ( 'NONE',  ( 3.491481338843133355E-15, -1.227517819005651059E-16, 1.000000000000000000 ) ) ;
#18 = CARTESIAN_POINT ( 'NONE',  ( -1.157181000702025580E-30, -1.349999999999999201, -3.314298111315255442E-16 ) ) ;
#19 = AXIS2_PLACEMENT_3D ( 'NONE', #140, #206, #1 ) ;
#20 = LOCAL_TIME ( 15, 59, 19.00000000000000000, #75 ) ;
#21 = ORIENTED_EDGE ( 'NONE', *, *, #33, .T. ) ;
#22 = ORIENTED_EDGE ( 'NONE', *, *, #199, .F. ) ;
#23 = PRODUCT_RELATED_PRODUCT_CATEGORY ( 'detail', '', ( #174 ) ) ;
#24 = AXIS2_PLACEMENT_3D ( 'NONE', #96, #9, #59 ) ;
#25 = EDGE_LOOP ( 'NONE', ( #40 ) ) ;
#26 = CARTESIAN_POINT ( 'NONE',  ( -5.785905003510127023E-31, -2.207282707186068797E-33, -1.657149055657627475E-16 ) ) ;
#27 = DATE_TIME_ROLE ( 'creation_date' ) ;
#28 = PERSON_AND_ORGANIZATION ( #157, #39 ) ;
#29 = FACE_OUTER_BOUND ( 'NONE', #194, .T. ) ;
#30 = DATE_AND_TIME ( #179, #56 ) ;
#31 = DIRECTION ( 'NONE',  ( -4.347078138912448306E-31, -1.000000000000000000, -1.227517819005651059E-16 ) ) ;
#32 = CYLINDRICAL_SURFACE ( 'NONE', #109, 1.349999999999999423 ) ;
#33 = EDGE_CURVE ( 'NONE', #99, #99, #55, .T. ) ;
#34 = DATE_AND_TIME ( #54, #94 ) ;
#35 = DIRECTION ( 'NONE',  ( -3.491481338843133355E-15, 1.224646799147353207E-16, -1.000000000000000000 ) ) ;
#36 = AXIS2_PLACEMENT_3D ( 'NONE', #143, #70, #191 ) ;
#37 = PLANE ( 'NONE',  #19 ) ;
#38 = APPLICATION_PROTOCOL_DEFINITION ( 'international standard', 'config_control_design', 1994, #160 ) ;
#39 = ORGANIZATION ( 'UNSPECIFIED', 'UNSPECIFIED', '' ) ;
#40 = ORIENTED_EDGE ( 'NONE', *, *, #141, .F. ) ;
#41 = CC_DESIGN_PERSON_AND_ORGANIZATION_ASSIGNMENT ( #192, #71, ( #174 ) ) ;
#42 = ORIENTED_EDGE ( 'NONE', *, *, #199, .T. ) ;
#43 = DIRECTION ( 'NONE',  ( 3.491481338843133355E-15, -1.227517819005651059E-16, 1.000000000000000000 ) ) ;
#44 = PERSON_AND_ORGANIZATION ( #157, #39 ) ;
#45 = CC_DESIGN_DATE_AND_TIME_ASSIGNMENT ( #61, #200, ( #3 ) ) ;
#46 = DATE_AND_TIME ( #166, #20 ) ;
#47 = DIRECTION ( 'NONE',  ( 3.491481338843133355E-15, -1.227517819005651059E-16, 1.000000000000000000 ) ) ;
#48 = PLANE ( 'NONE',  #10 ) ;
#49 =( GEOMETRIC_REPRESENTATION_CONTEXT ( 3 ) GLOBAL_UNCERTAINTY_ASSIGNED_CONTEXT ( ( #210 ) ) GLOBAL_UNIT_ASSIGNED_CONTEXT ( ( #156, #68, #209 ) ) REPRESENTATION_CONTEXT ( 'NONE', 'WORKASPACE' ) );
#50 = DIRECTION ( 'NONE',  ( 0.0000000000000000000, -1.000000000000000000, 0.0000000000000000000 ) ) ;
#51 = CARTESIAN_POINT ( 'NONE',  ( 1.316288464743861212E-13, -4.616918432785521081E-15, 37.69999999999999574 ) ) ;
#52 = MANIFOLD_SOLID_BREP ( 'Corps-Déplacer/Copier1[2]', #73 ) ;
#53 = FACE_OUTER_BOUND ( 'NONE', #176, .T. ) ;
#54 = CALENDAR_DATE ( 2021, 16, 11 ) ;
#55 = CIRCLE ( 'NONE', #208, 1.349999999999999201 ) ;
#56 = LOCAL_TIME ( 15, 59, 19.00000000000000000, #11 ) ;
#57 = EDGE_LOOP ( 'NONE', ( #145 ) ) ;
#58 = PERSON_AND_ORGANIZATION ( #157, #39 ) ;
#59 = DIRECTION ( 'NONE',  ( 0.0000000000000000000, -1.000000000000000000, 0.0000000000000000000 ) ) ;
#60 = VERTEX_POINT ( 'NONE', #64 ) ;
#61 = DATE_AND_TIME ( #97, #137 ) ;
#62 = FACE_OUTER_BOUND ( 'NONE', #217, .T. ) ;
#63 = EDGE_CURVE ( 'NONE', #165, #165, #65, .T. ) ;
#64 = CARTESIAN_POINT ( 'NONE',  ( 2.356749903719114699E-14, -1.350000000000000533, 6.749999999999999112 ) ) ;
#65 = CIRCLE ( 'NONE', #24, 1.349999999999999645 ) ;
#66 = DIRECTION ( 'NONE',  ( -4.275831445896958607E-31, -1.000000000000000000, -1.224646799147353207E-16 ) ) ;
#67 = FACE_OUTER_BOUND ( 'NONE', #91, .T. ) ;
#68 =( NAMED_UNIT ( * ) PLANE_ANGLE_UNIT ( ) SI_UNIT ( $, .RADIAN. ) );
#69 = CC_DESIGN_APPROVAL ( #144, ( #188 ) ) ;
#70 = DIRECTION ( 'NONE',  ( 0.0000000000000000000, 0.0000000000000000000, 1.000000000000000000 ) ) ;
#71 = PERSON_AND_ORGANIZATION_ROLE ( 'design_owner' ) ;
#72 = ADVANCED_FACE ( 'NONE', ( #133, #117 ), #32, .T. ) ;
#73 = CLOSED_SHELL ( 'NONE', ( #159, #72, #129 ) ) ;
#74 = EDGE_LOOP ( 'NONE', ( #95 ) ) ;
#75 = COORDINATED_UNIVERSAL_TIME_OFFSET ( 1, 0, .AHEAD. ) ;
#76 = CC_DESIGN_APPROVAL ( #127, ( #211 ) ) ;
#77 = EDGE_LOOP ( 'NONE', ( #162 ) ) ;
#78 = APPLICATION_CONTEXT ( 'configuration controlled 3d designs of mechanical parts and assemblies' ) ;
#79 = COORDINATED_UNIVERSAL_TIME_OFFSET ( 1, 0, .AHEAD. ) ;
#80 = CARTESIAN_POINT ( 'NONE',  ( 2.895106437171954157E-14, -1.892727394643430500E-16, 8.291914394510891739 ) ) ;
#81 = ADVANCED_FACE ( 'NONE', ( #53, #84 ), #181, .T. ) ;
#82 = CARTESIAN_POINT ( 'NONE',  ( -1.282754905350004587E-30, 4.499298539707956128E-32, -3.673956068672651857E-16 ) ) ;
#83 = APPROVAL_DATE_TIME ( #30, #193 ) ;
#84 = FACE_BOUND ( 'NONE', #175, .T. ) ;
#85 = AXIS2_PLACEMENT_3D ( 'NONE', #80, #119, #223 ) ;
#86 = CARTESIAN_POINT ( 'NONE',  ( 2.356749903719114699E-14, 0.0000000000000000000, 6.749999999999999112 ) ) ;
#87 = CARTESIAN_POINT ( 'NONE',  ( 1.326762908760390423E-13, -4.653657836759941941E-15, 38.00000000000000000 ) ) ;
#88 = EDGE_CURVE ( 'NONE', #101, #101, #116, .T. ) ;
#89 = CC_DESIGN_PERSON_AND_ORGANIZATION_ASSIGNMENT ( #28, #16, ( #188 ) ) ;
#90 = CC_DESIGN_APPROVAL ( #193, ( #3 ) ) ;
#91 = EDGE_LOOP ( 'NONE', ( #110 ) ) ;
#92 = PRODUCT_DEFINITION_SHAPE ( 'NONE', 'NONE',  #211 ) ;
#93 = ORIENTED_EDGE ( 'NONE', *, *, #63, .F. ) ;
#94 = LOCAL_TIME ( 15, 59, 19.00000000000000000, #142 ) ;
#95 = ORIENTED_EDGE ( 'NONE', *, *, #123, .F. ) ;
#96 = CARTESIAN_POINT ( 'NONE',  ( 2.356749903719114699E-14, -8.285745278288143290E-16, 6.749999999999999112 ) ) ;
#97 = CALENDAR_DATE ( 2021, 16, 11 ) ;
#98 = PERSON_AND_ORGANIZATION ( #157, #39 ) ;
#99 = VERTEX_POINT ( 'NONE', #18 ) ;
#100 = CALENDAR_DATE ( 2021, 16, 11 ) ;
#101 = VERTEX_POINT ( 'NONE', #138 ) ;
#102 = DIRECTION ( 'NONE',  ( 0.0000000000000000000, 1.000000000000000000, 0.0000000000000000000 ) ) ;
#103 = PERSON_AND_ORGANIZATION_ROLE ( 'design_supplier' ) ;
#104 = DIRECTION ( 'NONE',  ( 4.275831445896958607E-31, 1.000000000000000000, 1.224646799147353207E-16 ) ) ;
#105 = AXIS2_PLACEMENT_3D ( 'NONE', #86, #47, #31 ) ;
#106 = CC_DESIGN_PERSON_AND_ORGANIZATION_ASSIGNMENT ( #44, #197, ( #3 ) ) ;
#107 = DIRECTION ( 'NONE',  ( -3.491481338843133355E-15, 1.224646799147353207E-16, -1.000000000000000000 ) ) ;
#108 = APPROVAL_PERSON_ORGANIZATION ( #139, #144, #185 ) ;
#109 = AXIS2_PLACEMENT_3D ( 'NONE', #152, #15, #198 ) ;
#110 = ORIENTED_EDGE ( 'NONE', *, *, #33, .F. ) ;
#111 = ADVANCED_FACE ( 'NONE', ( #183 ), #189, .F. ) ;
#112 = AXIS2_PLACEMENT_3D ( 'NONE', #154, #17, #50 ) ;
#113 = APPROVAL_STATUS ( 'not_yet_approved' ) ;
#114 = FACE_OUTER_BOUND ( 'NONE', #77, .T. ) ;
#115 = ADVANCED_BREP_SHAPE_REPRESENTATION ( '964144', ( #195, #52, #36 ), #49 ) ;
#116 = CIRCLE ( 'NONE', #121, 1.199999999999993738 ) ;
#117 = FACE_OUTER_BOUND ( 'NONE', #74, .T. ) ;
#118 = DIRECTION ( 'NONE',  ( 0.0000000000000000000, 1.000000000000000000, 0.0000000000000000000 ) ) ;
#119 = DIRECTION ( 'NONE',  ( -3.491481338843133355E-15, 1.227517819005651059E-16, -1.000000000000000000 ) ) ;
#120 = DIRECTION ( 'NONE',  ( -3.491481338843133355E-15, 1.224646799147353207E-16, -1.000000000000000000 ) ) ;
#121 = AXIS2_PLACEMENT_3D ( 'NONE', #169, #120, #102 ) ;
#122 = APPROVAL_ROLE ( '' ) ;
#123 = EDGE_CURVE ( 'NONE', #60, #60, #126, .T. ) ;
#124 = DESIGN_CONTEXT ( 'detailed design', #78, 'design' ) ;
#125 = VERTEX_POINT ( 'NONE', #190 ) ;
#126 = CIRCLE ( 'NONE', #112, 1.349999999999999645 ) ;
#127 = APPROVAL ( #172, 'UNSPECIFIED' ) ;
#128 = TOROIDAL_SURFACE ( 'NONE', #105, 9.349999999999999645, 8.000000000000000000 ) ;
#129 = ADVANCED_FACE ( 'NONE', ( #67 ), #48, .F. ) ;
#130 = ORIENTED_EDGE ( 'NONE', *, *, #63, .T. ) ;
#131 = AXIS2_PLACEMENT_3D ( 'NONE', #201, #155, #66 ) ;
#132 = SECURITY_CLASSIFICATION_LEVEL ( 'unclassified' ) ;
#133 = FACE_OUTER_BOUND ( 'NONE', #148, .T. ) ;
#134 = DATE_AND_TIME ( #100, #7 ) ;
#135 = DIRECTION ( 'NONE',  ( 3.491481338843133355E-15, -1.224646799147353207E-16, 1.000000000000000000 ) ) ;
#136 = FACE_OUTER_BOUND ( 'NONE', #57, .T. ) ;
#137 = LOCAL_TIME ( 15, 59, 19.00000000000000000, #182 ) ;
#138 = CARTESIAN_POINT ( 'NONE',  ( 1.326762908760390423E-13, 1.199999999999989297, 38.00000000000000000 ) ) ;
#139 = PERSON_AND_ORGANIZATION ( #157, #39 ) ;
#140 = CARTESIAN_POINT ( 'NONE',  ( 2.356749903719115015E-14, 1.124819836996384448E-32, 6.750000000000000000 ) ) ;
#141 = EDGE_CURVE ( 'NONE', #12, #12, #6, .T. ) ;
#142 = COORDINATED_UNIVERSAL_TIME_OFFSET ( 1, 0, .AHEAD. ) ;
#143 = CARTESIAN_POINT ( 'NONE',  ( 0.0000000000000000000, 0.0000000000000000000, 0.0000000000000000000 ) ) ;
#144 = APPROVAL ( #164, 'UNSPECIFIED' ) ;
#145 = ORIENTED_EDGE ( 'NONE', *, *, #141, .T. ) ;
#146 = CC_DESIGN_PERSON_AND_ORGANIZATION_ASSIGNMENT ( #58, #14, ( #211 ) ) ;
#147 = ORIENTED_EDGE ( 'NONE', *, *, #88, .T. ) ;
#148 = EDGE_LOOP ( 'NONE', ( #21 ) ) ;
#149 = EDGE_LOOP ( 'NONE', ( #161 ) ) ;
#150 = SHAPE_DEFINITION_REPRESENTATION ( #92, #115 ) ;
#151 = CARTESIAN_POINT ( 'NONE',  ( 2.895106437171954157E-14, 1.499999999999991562, 8.291914394510891739 ) ) ;
#152 = CARTESIAN_POINT ( 'NONE',  ( -6.413731847436034514E-31, 0.0000000000000000000, -1.836965810494968570E-16 ) ) ;
#153 = ADVANCED_FACE ( 'NONE', ( #62, #136 ), #128, .F. ) ;
#154 = CARTESIAN_POINT ( 'NONE',  ( 2.356749903719114699E-14, -8.285745278288143290E-16, 6.749999999999999112 ) ) ;
#155 = DIRECTION ( 'NONE',  ( 3.491481338843133355E-15, -1.224646799147353207E-16, 1.000000000000000000 ) ) ;
#156 =( LENGTH_UNIT ( ) NAMED_UNIT ( * ) SI_UNIT ( .MILLI., .METRE. ) );
#157 = PERSON ( 'UNSPECIFIED', 'UNSPECIFIED', 'UNSPECIFIED', ('UNSPECIFIED'), ('UNSPECIFIED'), ('UNSPECIFIED') ) ;
#158 = APPROVAL_PERSON_ORGANIZATION ( #98, #193, #203 ) ;
#159 = ADVANCED_FACE ( 'NONE', ( #114 ), #180, .T. ) ;
#160 = APPLICATION_CONTEXT ( 'configuration controlled 3d designs of mechanical parts and assemblies' ) ;
#161 = ORIENTED_EDGE ( 'NONE', *, *, #88, .F. ) ;
#162 = ORIENTED_EDGE ( 'NONE', *, *, #123, .T. ) ;
#163 = CLOSED_SHELL ( 'NONE', ( #215, #81, #111, #153, #184 ) ) ;
#164 = APPROVAL_STATUS ( 'not_yet_approved' ) ;
#165 = VERTEX_POINT ( 'NONE', #219 ) ;
#166 = CALENDAR_DATE ( 2021, 16, 11 ) ;
#167 = FACE_OUTER_BOUND ( 'NONE', #214, .T. ) ;
#168 = CARTESIAN_POINT ( 'NONE',  ( 1.326762908760390423E-13, 8.998558695971030697E-33, 38.00000000000000000 ) ) ;
#169 = CARTESIAN_POINT ( 'NONE',  ( 1.326762908760390423E-13, -4.653657836759941941E-15, 38.00000000000000000 ) ) ;
#170 = DIRECTION ( 'NONE',  ( 4.275831445896958607E-31, 1.000000000000000000, 1.224646799147353207E-16 ) ) ;
#171 = APPROVAL_PERSON_ORGANIZATION ( #2, #127, #122 ) ;
#172 = APPROVAL_STATUS ( 'not_yet_approved' ) ;
#173 = CIRCLE ( 'NONE', #202, 1.499999999999993783 ) ;
#174 = PRODUCT ( '964144', '964144', '', ( #4 ) ) ;
#175 = EDGE_LOOP ( 'NONE', ( #147 ) ) ;
#176 = EDGE_LOOP ( 'NONE', ( #22 ) ) ;
#177 = AXIS2_PLACEMENT_3D ( 'NONE', #87, #187, #118 ) ;
#178 = DIRECTION ( 'NONE',  ( -4.285855558155653280E-31, -1.000000000000000000, -1.227517819005651059E-16 ) ) ;
#179 = CALENDAR_DATE ( 2021, 16, 11 ) ;
#180 = PLANE ( 'NONE',  #131 ) ;
#181 = CONICAL_SURFACE ( 'NONE', #177, 1.199999999999993738, 0.7853981633974453924 ) ;
#182 = COORDINATED_UNIVERSAL_TIME_OFFSET ( 1, 0, .AHEAD. ) ;
#183 = FACE_OUTER_BOUND ( 'NONE', #149, .T. ) ;
#184 = ADVANCED_FACE ( 'NONE', ( #29 ), #37, .F. ) ;
#185 = APPROVAL_ROLE ( '' ) ;
#186 = DIRECTION ( 'NONE',  ( -4.275831445896958607E-31, -1.000000000000000000, -1.224646799147353207E-16 ) ) ;
#187 = DIRECTION ( 'NONE',  ( -3.491481338843133355E-15, 1.224646799147353207E-16, -1.000000000000000000 ) ) ;
#188 = PRODUCT_DEFINITION_FORMATION_WITH_SPECIFIED_SOURCE ( 'ANY', '', #174, .NOT_KNOWN. ) ;
#189 = PLANE ( 'NONE',  #196 ) ;
#190 = CARTESIAN_POINT ( 'NONE',  ( 1.316288464743861212E-13, 1.499999999999989120, 37.69999999999999574 ) ) ;
#191 = DIRECTION ( 'NONE',  ( 1.000000000000000000, 0.0000000000000000000, 0.0000000000000000000 ) ) ;
#192 = PERSON_AND_ORGANIZATION ( #157, #39 ) ;
#193 = APPROVAL ( #113, 'UNSPECIFIED' ) ;
#194 = EDGE_LOOP ( 'NONE', ( #93 ) ) ;
#195 = MANIFOLD_SOLID_BREP ( 'Corps-Déplacer/Copier1[1]', #163 ) ;
#196 = AXIS2_PLACEMENT_3D ( 'NONE', #168, #35, #104 ) ;
#197 = PERSON_AND_ORGANIZATION_ROLE ( 'classification_officer' ) ;
#198 = DIRECTION ( 'NONE',  ( -4.285855558155654155E-31, -1.000000000000000000, -1.227517819005651059E-16 ) ) ;
#199 = EDGE_CURVE ( 'NONE', #125, #125, #173, .T. ) ;
#200 = DATE_TIME_ROLE ( 'classification_date' ) ;
#201 = CARTESIAN_POINT ( 'NONE',  ( 2.356749903719115015E-14, 1.124819836996384448E-32, 6.750000000000000000 ) ) ;
#202 = AXIS2_PLACEMENT_3D ( 'NONE', #51, #221, #204 ) ;
#203 = APPROVAL_ROLE ( '' ) ;
#204 = DIRECTION ( 'NONE',  ( 0.0000000000000000000, 1.000000000000000000, 0.0000000000000000000 ) ) ;
#205 = APPROVAL_DATE_TIME ( #134, #144 ) ;
#206 = DIRECTION ( 'NONE',  ( 3.491481338843133355E-15, -1.224646799147353207E-16, 1.000000000000000000 ) ) ;
#207 = FACE_OUTER_BOUND ( 'NONE', #25, .T. ) ;
#208 = AXIS2_PLACEMENT_3D ( 'NONE', #26, #43, #178 ) ;
#209 =( NAMED_UNIT ( * ) SI_UNIT ( $, .STERADIAN. ) SOLID_ANGLE_UNIT ( ) );
#210 = UNCERTAINTY_MEASURE_WITH_UNIT (LENGTH_MEASURE( 1.000000000000000082E-05 ), #156, 'distance_accuracy_value', 'NONE');
#211 = PRODUCT_DEFINITION ( 'UNKNOWN', '', #188, #124 ) ;
#212 = APPLICATION_PROTOCOL_DEFINITION ( 'international standard', 'config_control_design', 1994, #78 ) ;
#213 = CC_DESIGN_SECURITY_CLASSIFICATION ( #3, ( #188 ) ) ;
#214 = EDGE_LOOP ( 'NONE', ( #42 ) ) ;
#215 = ADVANCED_FACE ( 'NONE', ( #167, #207 ), #220, .T. ) ;
#216 = APPROVAL_DATE_TIME ( #34, #127 ) ;
#217 = EDGE_LOOP ( 'NONE', ( #130 ) ) ;
#218 = PERSON_AND_ORGANIZATION ( #157, #39 ) ;
#219 = CARTESIAN_POINT ( 'NONE',  ( 2.356749903719114699E-14, -1.350000000000000533, 6.749999999999999112 ) ) ;
#220 = CYLINDRICAL_SURFACE ( 'NONE', #222, 1.499999999999991784 ) ;
#221 = DIRECTION ( 'NONE',  ( -3.491481338843133355E-15, 1.224646799147353207E-16, -1.000000000000000000 ) ) ;
#222 = AXIS2_PLACEMENT_3D ( 'NONE', #13, #107, #170 ) ;
#223 = DIRECTION ( 'NONE',  ( 0.0000000000000000000, 1.000000000000000000, 0.0000000000000000000 ) ) ;
ENDSEC;
END-ISO-10303-21;
