ISO-10303-21;
HEADER;
FILE_DESCRIPTION (( 'STEP AP203' ),
    '1' );
FILE_NAME ('964143.step',
    '2021-11-16T14:59:18',
    ( '' ),
    ( '' ),
    'SwSTEP 2.0',
    'SolidWorks 2019',
    '' );
FILE_SCHEMA (( 'CONFIG_CONTROL_DESIGN' ));
ENDSEC;

DATA;
#1 = ORIENTED_EDGE ( 'NONE', *, *, #96, .F. ) ;
#2 = CLOSED_SHELL ( 'NONE', ( #34, #199, #144 ) ) ;
#3 = EDGE_LOOP ( 'NONE', ( #139 ) ) ;
#4 = VERTEX_POINT ( 'NONE', #54 ) ;
#5 = VERTEX_POINT ( 'NONE', #90 ) ;
#6 = FACE_OUTER_BOUND ( 'NONE', #176, .T. ) ;
#7 = DIRECTION ( 'NONE',  ( 0.0000000000000000000, 1.000000000000000000, 0.0000000000000000000 ) ) ;
#8 = APPROVAL ( #91, 'UNSPECIFIED' ) ;
#9 = DATE_AND_TIME ( #75, #204 ) ;
#10 = CARTESIAN_POINT ( 'NONE',  ( -1.282754905350004587E-30, 4.499298539707956128E-32, -3.673956068672651857E-16 ) ) ;
#11 = TOROIDAL_SURFACE ( 'NONE', #117, 9.299999999999998934, 8.000000000000000000 ) ;
#12 = CARTESIAN_POINT ( 'NONE',  ( -5.571612225602343308E-31, -2.960682705174264853E-33, -1.595773164707344848E-16 ) ) ;
#13 = CIRCLE ( 'NONE', #82, 1.300000000000000044 ) ;
#14 = FACE_OUTER_BOUND ( 'NONE', #3, .T. ) ;
#15 = CC_DESIGN_APPROVAL ( #8, ( #97 ) ) ;
#16 = ORIENTED_EDGE ( 'NONE', *, *, #155, .T. ) ;
#17 = EDGE_LOOP ( 'NONE', ( #33 ) ) ;
#18 = LOCAL_TIME ( 15, 59, 18.00000000000000000, #168 ) ;
#19 = FACE_OUTER_BOUND ( 'NONE', #99, .T. ) ;
#20 = DIRECTION ( 'NONE',  ( -4.285855558155652404E-31, -1.000000000000000000, -1.227517819005651059E-16 ) ) ;
#21 = DIRECTION ( 'NONE',  ( -3.491481338843133355E-15, 1.224646799147353207E-16, -1.000000000000000000 ) ) ;
#22 = APPLICATION_PROTOCOL_DEFINITION ( 'international standard', 'config_control_design', 1994, #156 ) ;
#23 = CC_DESIGN_APPROVAL ( #71, ( #150 ) ) ;
#24 = CC_DESIGN_PERSON_AND_ORGANIZATION_ASSIGNMENT ( #126, #26, ( #70 ) ) ;
#25 = CARTESIAN_POINT ( 'NONE',  ( 1.316288464743861212E-13, 1.499999999999989120, 37.69999999999999574 ) ) ;
#26 = PERSON_AND_ORGANIZATION_ROLE ( 'design_owner' ) ;
#27 = FACE_OUTER_BOUND ( 'NONE', #73, .T. ) ;
#28 = CALENDAR_DATE ( 2021, 16, 11 ) ;
#29 = DIRECTION ( 'NONE',  ( -3.491481338843133355E-15, 1.224646799147353207E-16, -1.000000000000000000 ) ) ;
#30 = APPROVAL_STATUS ( 'not_yet_approved' ) ;
#31 = APPROVAL_PERSON_ORGANIZATION ( #77, #8, #208 ) ;
#32 = AXIS2_PLACEMENT_3D ( 'NONE', #94, #78, #123 ) ;
#33 = ORIENTED_EDGE ( 'NONE', *, *, #155, .F. ) ;
#34 = ADVANCED_FACE ( 'NONE', ( #158 ), #121, .T. ) ;
#35 = EDGE_LOOP ( 'NONE', ( #102 ) ) ;
#36 = AXIS2_PLACEMENT_3D ( 'NONE', #198, #180, #20 ) ;
#37 =( NAMED_UNIT ( * ) SI_UNIT ( $, .STERADIAN. ) SOLID_ANGLE_UNIT ( ) );
#38 = ORIENTED_EDGE ( 'NONE', *, *, #146, .F. ) ;
#39 = DIRECTION ( 'NONE',  ( 3.491481338843133355E-15, -1.224646799147353207E-16, 1.000000000000000000 ) ) ;
#40 = APPROVAL_PERSON_ORGANIZATION ( #162, #211, #186 ) ;
#41 = FACE_OUTER_BOUND ( 'NONE', #35, .T. ) ;
#42 = DATE_TIME_ROLE ( 'classification_date' ) ;
#43 = ADVANCED_FACE ( 'NONE', ( #19, #14 ), #11, .F. ) ;
#44 = CARTESIAN_POINT ( 'NONE',  ( 1.326762908760390423E-13, -4.653657836759941941E-15, 38.00000000000000000 ) ) ;
#45 = APPROVAL_ROLE ( '' ) ;
#46 = CARTESIAN_POINT ( 'NONE',  ( 2.269462870248036681E-14, 1.124819836996384448E-32, 6.500000000000000000 ) ) ;
#47 = DIRECTION ( 'NONE',  ( -4.285855558155652404E-31, -1.000000000000000000, -1.227517819005651059E-16 ) ) ;
#48 = DATE_AND_TIME ( #184, #118 ) ;
#49 = COORDINATED_UNIVERSAL_TIME_OFFSET ( 1, 0, .AHEAD. ) ;
#50 = AXIS2_PLACEMENT_3D ( 'NONE', #207, #74, #59 ) ;
#51 = PRODUCT_DEFINITION ( 'UNKNOWN', '', #97, #69 ) ;
#52 = LOCAL_TIME ( 15, 59, 18.00000000000000000, #145 ) ;
#53 = EDGE_LOOP ( 'NONE', ( #193 ) ) ;
#54 = CARTESIAN_POINT ( 'NONE',  ( -1.114322445120468837E-30, -1.299999999999999156, -3.191546329414690189E-16 ) ) ;
#55 = ORIENTED_EDGE ( 'NONE', *, *, #83, .T. ) ;
#56 = ORGANIZATION ( 'UNSPECIFIED', 'UNSPECIFIED', '' ) ;
#57 = DIRECTION ( 'NONE',  ( -4.275831445896958607E-31, -1.000000000000000000, -1.224646799147353207E-16 ) ) ;
#58 = APPROVAL_DATE_TIME ( #9, #211 ) ;
#59 = DIRECTION ( 'NONE',  ( 0.0000000000000000000, -1.000000000000000000, 0.0000000000000000000 ) ) ;
#60 = PERSON_AND_ORGANIZATION ( #175, #56 ) ;
#61 = PLANE ( 'NONE',  #153 ) ;
#62 = CALENDAR_DATE ( 2021, 16, 11 ) ;
#63 = CIRCLE ( 'NONE', #50, 1.300000000000000044 ) ;
#64 = PLANE ( 'NONE',  #212 ) ;
#65 = SECURITY_CLASSIFICATION_LEVEL ( 'unclassified' ) ;
#66 = DATE_AND_TIME ( #62, #52 ) ;
#67 =( GEOMETRIC_REPRESENTATION_CONTEXT ( 3 ) GLOBAL_UNCERTAINTY_ASSIGNED_CONTEXT ( ( #154 ) ) GLOBAL_UNIT_ASSIGNED_CONTEXT ( ( #119, #106, #37 ) ) REPRESENTATION_CONTEXT ( 'NONE', 'WORKASPACE' ) );
#68 = CIRCLE ( 'NONE', #157, 1.299999999999999156 ) ;
#69 = DESIGN_CONTEXT ( 'detailed design', #156, 'design' ) ;
#70 = PRODUCT ( '964143', '964143', '', ( #124 ) ) ;
#71 = APPROVAL ( #30, 'UNSPECIFIED' ) ;
#72 = AXIS2_PLACEMENT_3D ( 'NONE', #170, #21, #85 ) ;
#73 = EDGE_LOOP ( 'NONE', ( #98 ) ) ;
#74 = DIRECTION ( 'NONE',  ( 3.491481338843133355E-15, -1.227517819005651059E-16, 1.000000000000000000 ) ) ;
#75 = CALENDAR_DATE ( 2021, 16, 11 ) ;
#76 = VERTEX_POINT ( 'NONE', #143 ) ;
#77 = PERSON_AND_ORGANIZATION ( #175, #56 ) ;
#78 = DIRECTION ( 'NONE',  ( -3.491481338843133355E-15, 1.224646799147353207E-16, -1.000000000000000000 ) ) ;
#79 = CIRCLE ( 'NONE', #213, 1.199999999999993738 ) ;
#80 = DIRECTION ( 'NONE',  ( 3.491481338843133355E-15, -1.227517819005651059E-16, 1.000000000000000000 ) ) ;
#81 = DIRECTION ( 'NONE',  ( 1.000000000000000000, 0.0000000000000000000, 0.0000000000000000000 ) ) ;
#82 = AXIS2_PLACEMENT_3D ( 'NONE', #218, #80, #105 ) ;
#83 = EDGE_CURVE ( 'NONE', #5, #5, #13, .T. ) ;
#84 = ORIENTED_EDGE ( 'NONE', *, *, #83, .F. ) ;
#85 = DIRECTION ( 'NONE',  ( 4.275831445896958607E-31, 1.000000000000000000, 1.224646799147353207E-16 ) ) ;
#86 = PERSON_AND_ORGANIZATION_ROLE ( 'design_supplier' ) ;
#87 = MANIFOLD_SOLID_BREP ( 'Corps-Déplacer/Copier1[2]', #2 ) ;
#88 = DIRECTION ( 'NONE',  ( -3.491481338843133355E-15, 1.224646799147353207E-16, -1.000000000000000000 ) ) ;
#89 = DATE_AND_TIME ( #28, #18 ) ;
#90 = CARTESIAN_POINT ( 'NONE',  ( 2.269462870248036365E-14, -1.300000000000000711, 6.499999999999999112 ) ) ;
#91 = APPROVAL_STATUS ( 'not_yet_approved' ) ;
#92 = PLANE ( 'NONE',  #72 ) ;
#93 = CARTESIAN_POINT ( 'NONE',  ( 0.0000000000000000000, 0.0000000000000000000, 0.0000000000000000000 ) ) ;
#94 = CARTESIAN_POINT ( 'NONE',  ( 1.316288464743861212E-13, -4.616918432785521081E-15, 37.69999999999999574 ) ) ;
#95 = AXIS2_PLACEMENT_3D ( 'NONE', #44, #88, #200 ) ;
#96 = EDGE_CURVE ( 'NONE', #109, #109, #79, .T. ) ;
#97 = PRODUCT_DEFINITION_FORMATION_WITH_SPECIFIED_SOURCE ( 'ANY', '', #70, .NOT_KNOWN. ) ;
#98 = ORIENTED_EDGE ( 'NONE', *, *, #133, .F. ) ;
#99 = EDGE_LOOP ( 'NONE', ( #16 ) ) ;
#100 = ADVANCED_FACE ( 'NONE', ( #149, #27 ), #205, .T. ) ;
#101 = APPLICATION_PROTOCOL_DEFINITION ( 'international standard', 'config_control_design', 1994, #114 ) ;
#102 = ORIENTED_EDGE ( 'NONE', *, *, #163, .F. ) ;
#103 = DIRECTION ( 'NONE',  ( -4.275831445896958607E-31, -1.000000000000000000, -1.224646799147353207E-16 ) ) ;
#104 = CLOSED_SHELL ( 'NONE', ( #100, #189, #135, #43, #111 ) ) ;
#105 = DIRECTION ( 'NONE',  ( 0.0000000000000000000, -1.000000000000000000, 0.0000000000000000000 ) ) ;
#106 =( NAMED_UNIT ( * ) PLANE_ANGLE_UNIT ( ) SI_UNIT ( $, .RADIAN. ) );
#107 = CC_DESIGN_DATE_AND_TIME_ASSIGNMENT ( #66, #42, ( #150 ) ) ;
#108 = DIRECTION ( 'NONE',  ( 0.0000000000000000000, 1.000000000000000000, 0.0000000000000000000 ) ) ;
#109 = VERTEX_POINT ( 'NONE', #181 ) ;
#110 = DATE_TIME_ROLE ( 'creation_date' ) ;
#111 = ADVANCED_FACE ( 'NONE', ( #129 ), #61, .F. ) ;
#112 = DIRECTION ( 'NONE',  ( 3.491481338843133355E-15, -1.224646799147353207E-16, 1.000000000000000000 ) ) ;
#113 = FACE_BOUND ( 'NONE', #138, .T. ) ;
#114 = APPLICATION_CONTEXT ( 'configuration controlled 3d designs of mechanical parts and assemblies' ) ;
#115 = APPROVAL_DATE_TIME ( #48, #71 ) ;
#116 = CALENDAR_DATE ( 2021, 16, 11 ) ;
#117 = AXIS2_PLACEMENT_3D ( 'NONE', #187, #185, #147 ) ;
#118 = LOCAL_TIME ( 15, 59, 18.00000000000000000, #131 ) ;
#119 =( LENGTH_UNIT ( ) NAMED_UNIT ( * ) SI_UNIT ( .MILLI., .METRE. ) );
#120 = ORIENTED_EDGE ( 'NONE', *, *, #96, .T. ) ;
#121 = PLANE ( 'NONE',  #182 ) ;
#122 = CYLINDRICAL_SURFACE ( 'NONE', #36, 1.299999999999999600 ) ;
#123 = DIRECTION ( 'NONE',  ( 0.0000000000000000000, 1.000000000000000000, 0.0000000000000000000 ) ) ;
#124 = MECHANICAL_CONTEXT ( 'NONE', #114, 'mechanical' ) ;
#125 = VERTEX_POINT ( 'NONE', #25 ) ;
#126 = PERSON_AND_ORGANIZATION ( #175, #56 ) ;
#127 = CC_DESIGN_DATE_AND_TIME_ASSIGNMENT ( #148, #110, ( #51 ) ) ;
#128 = CARTESIAN_POINT ( 'NONE',  ( 1.326762908760390423E-13, -4.653657836759941941E-15, 38.00000000000000000 ) ) ;
#129 = FACE_OUTER_BOUND ( 'NONE', #17, .T. ) ;
#130 = PERSON_AND_ORGANIZATION ( #175, #56 ) ;
#131 = COORDINATED_UNIVERSAL_TIME_OFFSET ( 1, 0, .AHEAD. ) ;
#132 = AXIS2_PLACEMENT_3D ( 'NONE', #151, #29, #183 ) ;
#133 = EDGE_CURVE ( 'NONE', #76, #76, #134, .T. ) ;
#134 = CIRCLE ( 'NONE', #174, 1.499999999999991784 ) ;
#135 = ADVANCED_FACE ( 'NONE', ( #202 ), #92, .F. ) ;
#136 = ORIENTED_EDGE ( 'NONE', *, *, #146, .T. ) ;
#137 = CC_DESIGN_PERSON_AND_ORGANIZATION_ASSIGNMENT ( #130, #222, ( #150 ) ) ;
#138 = EDGE_LOOP ( 'NONE', ( #120 ) ) ;
#139 = ORIENTED_EDGE ( 'NONE', *, *, #133, .T. ) ;
#140 = PRODUCT_DEFINITION_SHAPE ( 'NONE', 'NONE',  #51 ) ;
#141 = DIRECTION ( 'NONE',  ( -4.275831445896958607E-31, -1.000000000000000000, -1.224646799147353207E-16 ) ) ;
#142 = DIRECTION ( 'NONE',  ( 0.0000000000000000000, 0.0000000000000000000, 1.000000000000000000 ) ) ;
#143 = CARTESIAN_POINT ( 'NONE',  ( 2.890122169129366363E-14, 1.499999999999991562, 8.277638883463081854 ) ) ;
#144 = ADVANCED_FACE ( 'NONE', ( #41 ), #64, .F. ) ;
#145 = COORDINATED_UNIVERSAL_TIME_OFFSET ( 1, 0, .AHEAD. ) ;
#146 = EDGE_CURVE ( 'NONE', #125, #125, #172, .T. ) ;
#147 = DIRECTION ( 'NONE',  ( -4.347255082787467782E-31, -1.000000000000000000, -1.227517819005651059E-16 ) ) ;
#148 = DATE_AND_TIME ( #116, #223 ) ;
#149 = FACE_OUTER_BOUND ( 'NONE', #177, .T. ) ;
#150 = SECURITY_CLASSIFICATION ( '', '', #65 ) ;
#151 = CARTESIAN_POINT ( 'NONE',  ( 0.0000000000000000000, 0.0000000000000000000, 0.0000000000000000000 ) ) ;
#152 = PERSON_AND_ORGANIZATION_ROLE ( 'creator' ) ;
#153 = AXIS2_PLACEMENT_3D ( 'NONE', #46, #112, #57 ) ;
#154 = UNCERTAINTY_MEASURE_WITH_UNIT (LENGTH_MEASURE( 1.000000000000000082E-05 ), #119, 'distance_accuracy_value', 'NONE');
#155 = EDGE_CURVE ( 'NONE', #166, #166, #63, .T. ) ;
#156 = APPLICATION_CONTEXT ( 'configuration controlled 3d designs of mechanical parts and assemblies' ) ;
#157 = AXIS2_PLACEMENT_3D ( 'NONE', #12, #219, #47 ) ;
#158 = FACE_OUTER_BOUND ( 'NONE', #210, .T. ) ;
#159 = EDGE_LOOP ( 'NONE', ( #1 ) ) ;
#160 = CARTESIAN_POINT ( 'NONE',  ( 2.269462870248036365E-14, -1.300000000000000711, 6.499999999999999112 ) ) ;
#161 = FACE_OUTER_BOUND ( 'NONE', #191, .T. ) ;
#162 = PERSON_AND_ORGANIZATION ( #175, #56 ) ;
#163 = EDGE_CURVE ( 'NONE', #4, #4, #68, .T. ) ;
#164 = AXIS2_PLACEMENT_3D ( 'NONE', #93, #142, #81 ) ;
#165 = CARTESIAN_POINT ( 'NONE',  ( 2.890122169129366363E-14, -2.182083405208246094E-16, 8.277638883463081854 ) ) ;
#166 = VERTEX_POINT ( 'NONE', #160 ) ;
#167 = DIRECTION ( 'NONE',  ( 3.491481338843133355E-15, -1.224646799147353207E-16, 1.000000000000000000 ) ) ;
#168 = COORDINATED_UNIVERSAL_TIME_OFFSET ( 1, 0, .AHEAD. ) ;
#169 = MANIFOLD_SOLID_BREP ( 'Corps-Déplacer/Copier1[1]', #104 ) ;
#170 = CARTESIAN_POINT ( 'NONE',  ( 1.326762908760390423E-13, 8.998558695971030697E-33, 38.00000000000000000 ) ) ;
#171 = SHAPE_DEFINITION_REPRESENTATION ( #140, #178 ) ;
#172 = CIRCLE ( 'NONE', #32, 1.499999999999993783 ) ;
#173 = CC_DESIGN_PERSON_AND_ORGANIZATION_ASSIGNMENT ( #215, #152, ( #51 ) ) ;
#174 = AXIS2_PLACEMENT_3D ( 'NONE', #165, #216, #108 ) ;
#175 = PERSON ( 'UNSPECIFIED', 'UNSPECIFIED', 'UNSPECIFIED', ('UNSPECIFIED'), ('UNSPECIFIED'), ('UNSPECIFIED') ) ;
#176 = EDGE_LOOP ( 'NONE', ( #84 ) ) ;
#177 = EDGE_LOOP ( 'NONE', ( #136 ) ) ;
#178 = ADVANCED_BREP_SHAPE_REPRESENTATION ( '964143', ( #169, #87, #164 ), #67 ) ;
#179 = APPROVAL_PERSON_ORGANIZATION ( #203, #71, #45 ) ;
#180 = DIRECTION ( 'NONE',  ( 3.491481338843133355E-15, -1.227517819005651059E-16, 1.000000000000000000 ) ) ;
#181 = CARTESIAN_POINT ( 'NONE',  ( 1.326762908760390423E-13, 1.199999999999989297, 38.00000000000000000 ) ) ;
#182 = AXIS2_PLACEMENT_3D ( 'NONE', #196, #39, #103 ) ;
#183 = DIRECTION ( 'NONE',  ( 4.275831445896958607E-31, 1.000000000000000000, 1.224646799147353207E-16 ) ) ;
#184 = CALENDAR_DATE ( 2021, 16, 11 ) ;
#185 = DIRECTION ( 'NONE',  ( 3.491481338843133355E-15, -1.227517819005651059E-16, 1.000000000000000000 ) ) ;
#186 = APPROVAL_ROLE ( '' ) ;
#187 = CARTESIAN_POINT ( 'NONE',  ( 2.269462870248036365E-14, 0.0000000000000000000, 6.499999999999999112 ) ) ;
#188 = PERSON_AND_ORGANIZATION ( #175, #56 ) ;
#189 = ADVANCED_FACE ( 'NONE', ( #161, #113 ), #209, .T. ) ;
#190 = PRODUCT_RELATED_PRODUCT_CATEGORY ( 'detail', '', ( #70 ) ) ;
#191 = EDGE_LOOP ( 'NONE', ( #38 ) ) ;
#192 = CC_DESIGN_PERSON_AND_ORGANIZATION_ASSIGNMENT ( #188, #86, ( #97 ) ) ;
#193 = ORIENTED_EDGE ( 'NONE', *, *, #163, .T. ) ;
#194 = CC_DESIGN_APPROVAL ( #211, ( #51 ) ) ;
#195 = CC_DESIGN_PERSON_AND_ORGANIZATION_ASSIGNMENT ( #60, #206, ( #97 ) ) ;
#196 = CARTESIAN_POINT ( 'NONE',  ( 2.269462870248036681E-14, 1.124819836996384448E-32, 6.500000000000000000 ) ) ;
#197 = CC_DESIGN_SECURITY_CLASSIFICATION ( #150, ( #97 ) ) ;
#198 = CARTESIAN_POINT ( 'NONE',  ( -6.413731847436034514E-31, 0.0000000000000000000, -1.836965810494968570E-16 ) ) ;
#199 = ADVANCED_FACE ( 'NONE', ( #221, #6 ), #122, .T. ) ;
#200 = DIRECTION ( 'NONE',  ( 0.0000000000000000000, 1.000000000000000000, 0.0000000000000000000 ) ) ;
#201 = COORDINATED_UNIVERSAL_TIME_OFFSET ( 1, 0, .AHEAD. ) ;
#202 = FACE_OUTER_BOUND ( 'NONE', #159, .T. ) ;
#203 = PERSON_AND_ORGANIZATION ( #175, #56 ) ;
#204 = LOCAL_TIME ( 15, 59, 18.00000000000000000, #49 ) ;
#205 = CYLINDRICAL_SURFACE ( 'NONE', #132, 1.499999999999991784 ) ;
#206 = PERSON_AND_ORGANIZATION_ROLE ( 'creator' ) ;
#207 = CARTESIAN_POINT ( 'NONE',  ( 2.269462870248036365E-14, -7.978865823536730648E-16, 6.499999999999999112 ) ) ;
#208 = APPROVAL_ROLE ( '' ) ;
#209 = CONICAL_SURFACE ( 'NONE', #95, 1.199999999999993738, 0.7853981633974453924 ) ;
#210 = EDGE_LOOP ( 'NONE', ( #55 ) ) ;
#211 = APPROVAL ( #217, 'UNSPECIFIED' ) ;
#212 = AXIS2_PLACEMENT_3D ( 'NONE', #10, #167, #141 ) ;
#213 = AXIS2_PLACEMENT_3D ( 'NONE', #128, #214, #7 ) ;
#214 = DIRECTION ( 'NONE',  ( -3.491481338843133355E-15, 1.224646799147353207E-16, -1.000000000000000000 ) ) ;
#215 = PERSON_AND_ORGANIZATION ( #175, #56 ) ;
#216 = DIRECTION ( 'NONE',  ( -3.491481338843133355E-15, 1.227517819005651059E-16, -1.000000000000000000 ) ) ;
#217 = APPROVAL_STATUS ( 'not_yet_approved' ) ;
#218 = CARTESIAN_POINT ( 'NONE',  ( 2.269462870248036365E-14, -7.978865823536730648E-16, 6.499999999999999112 ) ) ;
#219 = DIRECTION ( 'NONE',  ( 3.491481338843133355E-15, -1.227517819005651059E-16, 1.000000000000000000 ) ) ;
#220 = APPROVAL_DATE_TIME ( #89, #8 ) ;
#221 = FACE_OUTER_BOUND ( 'NONE', #53, .T. ) ;
#222 = PERSON_AND_ORGANIZATION_ROLE ( 'classification_officer' ) ;
#223 = LOCAL_TIME ( 15, 59, 18.00000000000000000, #201 ) ;
ENDSEC;
END-ISO-10303-21;
