ISO-10303-21;
HEADER;
FILE_DESCRIPTION (( 'STEP AP203' ),
    '1' );
FILE_NAME ('964142.step',
    '2021-11-16T14:59:18',
    ( '' ),
    ( '' ),
    'SwSTEP 2.0',
    'SolidWorks 2019',
    '' );
FILE_SCHEMA (( 'CONFIG_CONTROL_DESIGN' ));
ENDSEC;

DATA;
#1 = DIRECTION ( 'NONE',  ( -3.491481338843133355E-15, 1.227517819005651059E-16, -1.000000000000000000 ) ) ;
#2 = APPROVAL_STATUS ( 'not_yet_approved' ) ;
#3 = AXIS2_PLACEMENT_3D ( 'NONE', #31, #146, #54 ) ;
#4 = DIRECTION ( 'NONE',  ( 1.000000000000000000, 0.0000000000000000000, 0.0000000000000000000 ) ) ;
#5 = MECHANICAL_CONTEXT ( 'NONE', #48, 'mechanical' ) ;
#6 = AXIS2_PLACEMENT_3D ( 'NONE', #140, #53, #133 ) ;
#7 = APPROVAL ( #59, 'UNSPECIFIED' ) ;
#8 = CARTESIAN_POINT ( 'NONE',  ( 2.094888803305879698E-14, -1.200000000000001066, 5.999999999999999112 ) ) ;
#9 = LOCAL_TIME ( 15, 59, 18.00000000000000000, #27 ) ;
#10 = SHAPE_DEFINITION_REPRESENTATION ( #160, #191 ) ;
#11 = CC_DESIGN_PERSON_AND_ORGANIZATION_ASSIGNMENT ( #88, #118, ( #28 ) ) ;
#12 = CIRCLE ( 'NONE', #143, 1.200000000000000400 ) ;
#13 = CC_DESIGN_PERSON_AND_ORGANIZATION_ASSIGNMENT ( #57, #86, ( #179 ) ) ;
#14 = EDGE_LOOP ( 'NONE', ( #94 ) ) ;
#15 = DIRECTION ( 'NONE',  ( 3.491481338843133355E-15, -1.227517819005651059E-16, 1.000000000000000000 ) ) ;
#16 = MANIFOLD_SOLID_BREP ( 'Corps-Déplacer/Copier1[1]', #129 ) ;
#17 = PRODUCT_DEFINITION_FORMATION_WITH_SPECIFIED_SOURCE ( 'ANY', '', #179, .NOT_KNOWN. ) ;
#18 = FACE_OUTER_BOUND ( 'NONE', #46, .T. ) ;
#19 = CYLINDRICAL_SURFACE ( 'NONE', #180, 1.199999999999999734 ) ;
#20 = ORIENTED_EDGE ( 'NONE', *, *, #189, .F. ) ;
#21 = CARTESIAN_POINT ( 'NONE',  ( 2.094888803305879698E-14, -1.200000000000001066, 5.999999999999999112 ) ) ;
#22 = VERTEX_POINT ( 'NONE', #8 ) ;
#23 = PERSON_AND_ORGANIZATION ( #40, #63 ) ;
#24 = CARTESIAN_POINT ( 'NONE',  ( 0.0000000000000000000, 0.0000000000000000000, 0.0000000000000000000 ) ) ;
#25 = PERSON_AND_ORGANIZATION ( #40, #63 ) ;
#26 = CC_DESIGN_SECURITY_CLASSIFICATION ( #75, ( #17 ) ) ;
#27 = COORDINATED_UNIVERSAL_TIME_OFFSET ( 1, 0, .AHEAD. ) ;
#28 = PRODUCT_DEFINITION ( 'UNKNOWN', '', #17, #56 ) ;
#29 = APPROVAL_ROLE ( '' ) ;
#30 = FACE_OUTER_BOUND ( 'NONE', #186, .T. ) ;
#31 = CARTESIAN_POINT ( 'NONE',  ( 2.094888803305879698E-14, 0.0000000000000000000, 5.999999999999999112 ) ) ;
#32 = DIRECTION ( 'NONE',  ( 3.491481338843133355E-15, -1.224646799147353207E-16, 1.000000000000000000 ) ) ;
#33 = DIRECTION ( 'NONE',  ( 0.0000000000000000000, -1.000000000000000000, 0.0000000000000000000 ) ) ;
#34 = DIRECTION ( 'NONE',  ( -4.285855558155652404E-31, -1.000000000000000000, -1.227517819005651059E-16 ) ) ;
#35 = PLANE ( 'NONE',  #73 ) ;
#36 = CC_DESIGN_APPROVAL ( #131, ( #75 ) ) ;
#37 = APPROVAL_ROLE ( '' ) ;
#38 = CALENDAR_DATE ( 2021, 16, 11 ) ;
#39 = COORDINATED_UNIVERSAL_TIME_OFFSET ( 1, 0, .AHEAD. ) ;
#40 = PERSON ( 'UNSPECIFIED', 'UNSPECIFIED', 'UNSPECIFIED', ('UNSPECIFIED'), ('UNSPECIFIED'), ('UNSPECIFIED') ) ;
#41 = DATE_AND_TIME ( #196, #170 ) ;
#42 = LOCAL_TIME ( 15, 59, 18.00000000000000000, #212 ) ;
#43 = AXIS2_PLACEMENT_3D ( 'NONE', #49, #65, #205 ) ;
#44 = ADVANCED_FACE ( 'NONE', ( #202, #30 ), #116, .F. ) ;
#45 = EDGE_LOOP ( 'NONE', ( #51 ) ) ;
#46 = EDGE_LOOP ( 'NONE', ( #132 ) ) ;
#47 = FACE_OUTER_BOUND ( 'NONE', #79, .T. ) ;
#48 = APPLICATION_CONTEXT ( 'configuration controlled 3d designs of mechanical parts and assemblies' ) ;
#49 = CARTESIAN_POINT ( 'NONE',  ( 1.326762908760390423E-13, -4.653657836759941941E-15, 38.00000000000000000 ) ) ;
#50 = EDGE_CURVE ( 'NONE', #204, #204, #125, .T. ) ;
#51 = ORIENTED_EDGE ( 'NONE', *, *, #78, .T. ) ;
#52 = VERTEX_POINT ( 'NONE', #113 ) ;
#53 = DIRECTION ( 'NONE',  ( -3.491481338843133355E-15, 1.224646799147353207E-16, -1.000000000000000000 ) ) ;
#54 = DIRECTION ( 'NONE',  ( -4.347612056767884799E-31, -1.000000000000000000, -1.227517819005651059E-16 ) ) ;
#55 = CARTESIAN_POINT ( 'NONE',  ( 2.852628742434045351E-14, -2.664024771102664229E-16, 8.170253441421040819 ) ) ;
#56 = DESIGN_CONTEXT ( 'detailed design', #199, 'design' ) ;
#57 = PERSON_AND_ORGANIZATION ( #40, #63 ) ;
#58 = CIRCLE ( 'NONE', #178, 1.499999999999993783 ) ;
#59 = APPROVAL_STATUS ( 'not_yet_approved' ) ;
#60 = DIRECTION ( 'NONE',  ( 0.0000000000000000000, 0.0000000000000000000, 1.000000000000000000 ) ) ;
#61 = CIRCLE ( 'NONE', #103, 1.199999999999999289 ) ;
#62 = AXIS2_PLACEMENT_3D ( 'NONE', #139, #115, #223 ) ;
#63 = ORGANIZATION ( 'UNSPECIFIED', 'UNSPECIFIED', '' ) ;
#64 = ORIENTED_EDGE ( 'NONE', *, *, #78, .F. ) ;
#65 = DIRECTION ( 'NONE',  ( -3.491481338843133355E-15, 1.224646799147353207E-16, -1.000000000000000000 ) ) ;
#66 = DIRECTION ( 'NONE',  ( 0.0000000000000000000, 1.000000000000000000, 0.0000000000000000000 ) ) ;
#67 = ORIENTED_EDGE ( 'NONE', *, *, #119, .T. ) ;
#68 = DIRECTION ( 'NONE',  ( 3.491481338843133355E-15, -1.227517819005651059E-16, 1.000000000000000000 ) ) ;
#69 = DIRECTION ( 'NONE',  ( 3.491481338843133355E-15, -1.224646799147353207E-16, 1.000000000000000000 ) ) ;
#70 = CARTESIAN_POINT ( 'NONE',  ( 1.316288464743861212E-13, -4.616918432785521081E-15, 37.69999999999999574 ) ) ;
#71 = DIRECTION ( 'NONE',  ( -4.275831445896958607E-31, -1.000000000000000000, -1.224646799147353207E-16 ) ) ;
#72 = DATE_AND_TIME ( #99, #42 ) ;
#73 = AXIS2_PLACEMENT_3D ( 'NONE', #92, #32, #203 ) ;
#74 =( LENGTH_UNIT ( ) NAMED_UNIT ( * ) SI_UNIT ( .MILLI., .METRE. ) );
#75 = SECURITY_CLASSIFICATION ( '', '', #211 ) ;
#76 = APPROVAL_DATE_TIME ( #91, #131 ) ;
#77 = CC_DESIGN_APPROVAL ( #7, ( #17 ) ) ;
#78 = EDGE_CURVE ( 'NONE', #52, #52, #58, .T. ) ;
#79 = EDGE_LOOP ( 'NONE', ( #67 ) ) ;
#80 = CARTESIAN_POINT ( 'NONE',  ( 1.326762908760390423E-13, -4.653657836759941941E-15, 38.00000000000000000 ) ) ;
#81 = CARTESIAN_POINT ( 'NONE',  ( -5.143026669786780257E-31, -4.467482701150651491E-33, -1.473021382806779841E-16 ) ) ;
#82 = ADVANCED_FACE ( 'NONE', ( #96, #135 ), #219, .T. ) ;
#83 = ORIENTED_EDGE ( 'NONE', *, *, #200, .F. ) ;
#84 = CARTESIAN_POINT ( 'NONE',  ( -1.028605333957356051E-30, -1.199999999999999289, -2.946042765613560174E-16 ) ) ;
#85 = CARTESIAN_POINT ( 'NONE',  ( 2.094888803305879698E-14, -7.365106914033905366E-16, 5.999999999999999112 ) ) ;
#86 = PERSON_AND_ORGANIZATION_ROLE ( 'design_owner' ) ;
#87 = CIRCLE ( 'NONE', #157, 1.499999999999991784 ) ;
#88 = PERSON_AND_ORGANIZATION ( #40, #63 ) ;
#89 = COORDINATED_UNIVERSAL_TIME_OFFSET ( 1, 0, .AHEAD. ) ;
#90 = ADVANCED_FACE ( 'NONE', ( #95 ), #167, .T. ) ;
#91 = DATE_AND_TIME ( #126, #215 ) ;
#92 = CARTESIAN_POINT ( 'NONE',  ( 2.094888803305880013E-14, 1.124819836996384721E-32, 6.000000000000000000 ) ) ;
#93 = APPROVAL_PERSON_ORGANIZATION ( #104, #131, #29 ) ;
#94 = ORIENTED_EDGE ( 'NONE', *, *, #50, .F. ) ;
#95 = FACE_OUTER_BOUND ( 'NONE', #161, .T. ) ;
#96 = FACE_OUTER_BOUND ( 'NONE', #111, .T. ) ;
#97 = DIRECTION ( 'NONE',  ( 4.275831445896958607E-31, 1.000000000000000000, 1.224646799147353207E-16 ) ) ;
#98 = AXIS2_PLACEMENT_3D ( 'NONE', #145, #69, #71 ) ;
#99 = CALENDAR_DATE ( 2021, 16, 11 ) ;
#100 = DATE_AND_TIME ( #38, #164 ) ;
#101 = UNCERTAINTY_MEASURE_WITH_UNIT (LENGTH_MEASURE( 1.000000000000000082E-05 ), #74, 'distance_accuracy_value', 'NONE');
#102 = PERSON_AND_ORGANIZATION ( #40, #63 ) ;
#103 = AXIS2_PLACEMENT_3D ( 'NONE', #81, #207, #34 ) ;
#104 = PERSON_AND_ORGANIZATION ( #40, #63 ) ;
#105 = APPLICATION_PROTOCOL_DEFINITION ( 'international standard', 'config_control_design', 1994, #199 ) ;
#106 =( GEOMETRIC_REPRESENTATION_CONTEXT ( 3 ) GLOBAL_UNCERTAINTY_ASSIGNED_CONTEXT ( ( #101 ) ) GLOBAL_UNIT_ASSIGNED_CONTEXT ( ( #74, #193, #213 ) ) REPRESENTATION_CONTEXT ( 'NONE', 'WORKASPACE' ) );
#107 = COORDINATED_UNIVERSAL_TIME_OFFSET ( 1, 0, .AHEAD. ) ;
#108 = CC_DESIGN_DATE_AND_TIME_ASSIGNMENT ( #72, #172, ( #28 ) ) ;
#109 = ORIENTED_EDGE ( 'NONE', *, *, #159, .F. ) ;
#110 = FACE_OUTER_BOUND ( 'NONE', #151, .T. ) ;
#111 = EDGE_LOOP ( 'NONE', ( #64 ) ) ;
#112 = FACE_OUTER_BOUND ( 'NONE', #136, .T. ) ;
#113 = CARTESIAN_POINT ( 'NONE',  ( 1.316288464743861212E-13, 1.499999999999989120, 37.69999999999999574 ) ) ;
#114 = DIRECTION ( 'NONE',  ( 3.491481338843133355E-15, -1.224646799147353207E-16, 1.000000000000000000 ) ) ;
#115 = DIRECTION ( 'NONE',  ( 3.491481338843133355E-15, -1.227517819005651059E-16, 1.000000000000000000 ) ) ;
#116 = TOROIDAL_SURFACE ( 'NONE', #3, 9.199999999999999289, 8.000000000000000000 ) ;
#117 = VERTEX_POINT ( 'NONE', #152 ) ;
#118 = PERSON_AND_ORGANIZATION_ROLE ( 'creator' ) ;
#119 = EDGE_CURVE ( 'NONE', #188, #188, #61, .T. ) ;
#120 = APPROVAL_ROLE ( '' ) ;
#121 = PERSON_AND_ORGANIZATION_ROLE ( 'creator' ) ;
#122 = ADVANCED_FACE ( 'NONE', ( #110 ), #201, .F. ) ;
#123 = PERSON_AND_ORGANIZATION_ROLE ( 'classification_officer' ) ;
#124 = AXIS2_PLACEMENT_3D ( 'NONE', #218, #114, #221 ) ;
#125 = CIRCLE ( 'NONE', #62, 1.200000000000000400 ) ;
#126 = CALENDAR_DATE ( 2021, 16, 11 ) ;
#127 = CC_DESIGN_PERSON_AND_ORGANIZATION_ASSIGNMENT ( #195, #123, ( #75 ) ) ;
#128 = CIRCLE ( 'NONE', #153, 1.199999999999993738 ) ;
#129 = CLOSED_SHELL ( 'NONE', ( #177, #82, #122, #44, #174 ) ) ;
#130 = ORIENTED_EDGE ( 'NONE', *, *, #50, .T. ) ;
#131 = APPROVAL ( #176, 'UNSPECIFIED' ) ;
#132 = ORIENTED_EDGE ( 'NONE', *, *, #119, .F. ) ;
#133 = DIRECTION ( 'NONE',  ( 4.275831445896958607E-31, 1.000000000000000000, 1.224646799147353207E-16 ) ) ;
#134 = ORIENTED_EDGE ( 'NONE', *, *, #200, .T. ) ;
#135 = FACE_BOUND ( 'NONE', #181, .T. ) ;
#136 = EDGE_LOOP ( 'NONE', ( #83 ) ) ;
#137 = CYLINDRICAL_SURFACE ( 'NONE', #209, 1.499999999999991784 ) ;
#138 = CARTESIAN_POINT ( 'NONE',  ( -6.413731847436034514E-31, 0.0000000000000000000, -1.836965810494968570E-16 ) ) ;
#139 = CARTESIAN_POINT ( 'NONE',  ( 2.094888803305879698E-14, -7.365106914033905366E-16, 5.999999999999999112 ) ) ;
#140 = CARTESIAN_POINT ( 'NONE',  ( 1.326762908760390423E-13, 8.998558695971030697E-33, 38.00000000000000000 ) ) ;
#141 = CALENDAR_DATE ( 2021, 16, 11 ) ;
#142 = ADVANCED_FACE ( 'NONE', ( #47, #162 ), #19, .T. ) ;
#143 = AXIS2_PLACEMENT_3D ( 'NONE', #85, #68, #33 ) ;
#144 = ORIENTED_EDGE ( 'NONE', *, *, #159, .T. ) ;
#145 = CARTESIAN_POINT ( 'NONE',  ( 2.094888803305880013E-14, 1.124819836996384721E-32, 6.000000000000000000 ) ) ;
#146 = DIRECTION ( 'NONE',  ( 3.491481338843133355E-15, -1.227517819005651059E-16, 1.000000000000000000 ) ) ;
#147 = PRODUCT_RELATED_PRODUCT_CATEGORY ( 'detail', '', ( #179 ) ) ;
#148 = DIRECTION ( 'NONE',  ( 0.0000000000000000000, 1.000000000000000000, 0.0000000000000000000 ) ) ;
#149 = ORIENTED_EDGE ( 'NONE', *, *, #189, .T. ) ;
#150 = DIRECTION ( 'NONE',  ( -3.491481338843133355E-15, 1.224646799147353207E-16, -1.000000000000000000 ) ) ;
#151 = EDGE_LOOP ( 'NONE', ( #20 ) ) ;
#152 = CARTESIAN_POINT ( 'NONE',  ( 2.852628742434045351E-14, 1.499999999999991562, 8.170253441421040819 ) ) ;
#153 = AXIS2_PLACEMENT_3D ( 'NONE', #80, #190, #148 ) ;
#154 = APPROVAL ( #2, 'UNSPECIFIED' ) ;
#155 = DATE_AND_TIME ( #141, #9 ) ;
#156 = PERSON_AND_ORGANIZATION_ROLE ( 'design_supplier' ) ;
#157 = AXIS2_PLACEMENT_3D ( 'NONE', #55, #1, #66 ) ;
#158 = PERSON_AND_ORGANIZATION ( #40, #63 ) ;
#159 = EDGE_CURVE ( 'NONE', #117, #117, #87, .T. ) ;
#160 = PRODUCT_DEFINITION_SHAPE ( 'NONE', 'NONE',  #28 ) ;
#161 = EDGE_LOOP ( 'NONE', ( #130 ) ) ;
#162 = FACE_OUTER_BOUND ( 'NONE', #14, .T. ) ;
#163 = CC_DESIGN_PERSON_AND_ORGANIZATION_ASSIGNMENT ( #25, #156, ( #17 ) ) ;
#164 = LOCAL_TIME ( 15, 59, 18.00000000000000000, #89 ) ;
#165 = MANIFOLD_SOLID_BREP ( 'Corps-Déplacer/Copier1[2]', #216 ) ;
#166 = FACE_OUTER_BOUND ( 'NONE', #217, .T. ) ;
#167 = PLANE ( 'NONE',  #98 ) ;
#168 = CARTESIAN_POINT ( 'NONE',  ( 0.0000000000000000000, 0.0000000000000000000, 0.0000000000000000000 ) ) ;
#169 = CARTESIAN_POINT ( 'NONE',  ( 1.326762908760390423E-13, 1.199999999999989297, 38.00000000000000000 ) ) ;
#170 = LOCAL_TIME ( 15, 59, 18.00000000000000000, #39 ) ;
#171 = APPROVAL_PERSON_ORGANIZATION ( #23, #7, #120 ) ;
#172 = DATE_TIME_ROLE ( 'creation_date' ) ;
#173 = APPROVAL_DATE_TIME ( #100, #7 ) ;
#174 = ADVANCED_FACE ( 'NONE', ( #112 ), #35, .F. ) ;
#175 = DATE_TIME_ROLE ( 'classification_date' ) ;
#176 = APPROVAL_STATUS ( 'not_yet_approved' ) ;
#177 = ADVANCED_FACE ( 'NONE', ( #185, #166 ), #137, .T. ) ;
#178 = AXIS2_PLACEMENT_3D ( 'NONE', #70, #206, #182 ) ;
#179 = PRODUCT ( '964142', '964142', '', ( #5 ) ) ;
#180 = AXIS2_PLACEMENT_3D ( 'NONE', #138, #15, #220 ) ;
#181 = EDGE_LOOP ( 'NONE', ( #149 ) ) ;
#182 = DIRECTION ( 'NONE',  ( 0.0000000000000000000, 1.000000000000000000, 0.0000000000000000000 ) ) ;
#183 = ADVANCED_FACE ( 'NONE', ( #18 ), #222, .F. ) ;
#184 = EDGE_LOOP ( 'NONE', ( #134 ) ) ;
#185 = FACE_OUTER_BOUND ( 'NONE', #45, .T. ) ;
#186 = EDGE_LOOP ( 'NONE', ( #144 ) ) ;
#187 = APPROVAL_PERSON_ORGANIZATION ( #102, #154, #37 ) ;
#188 = VERTEX_POINT ( 'NONE', #84 ) ;
#189 = EDGE_CURVE ( 'NONE', #192, #192, #128, .T. ) ;
#190 = DIRECTION ( 'NONE',  ( -3.491481338843133355E-15, 1.224646799147353207E-16, -1.000000000000000000 ) ) ;
#191 = ADVANCED_BREP_SHAPE_REPRESENTATION ( '964142', ( #16, #165, #198 ), #106 ) ;
#192 = VERTEX_POINT ( 'NONE', #169 ) ;
#193 =( NAMED_UNIT ( * ) PLANE_ANGLE_UNIT ( ) SI_UNIT ( $, .RADIAN. ) );
#194 = CC_DESIGN_DATE_AND_TIME_ASSIGNMENT ( #41, #175, ( #75 ) ) ;
#195 = PERSON_AND_ORGANIZATION ( #40, #63 ) ;
#196 = CALENDAR_DATE ( 2021, 16, 11 ) ;
#197 = APPLICATION_PROTOCOL_DEFINITION ( 'international standard', 'config_control_design', 1994, #48 ) ;
#198 = AXIS2_PLACEMENT_3D ( 'NONE', #24, #60, #4 ) ;
#199 = APPLICATION_CONTEXT ( 'configuration controlled 3d designs of mechanical parts and assemblies' ) ;
#200 = EDGE_CURVE ( 'NONE', #22, #22, #12, .T. ) ;
#201 = PLANE ( 'NONE',  #6 ) ;
#202 = FACE_OUTER_BOUND ( 'NONE', #184, .T. ) ;
#203 = DIRECTION ( 'NONE',  ( -4.275831445896958607E-31, -1.000000000000000000, -1.224646799147353207E-16 ) ) ;
#204 = VERTEX_POINT ( 'NONE', #21 ) ;
#205 = DIRECTION ( 'NONE',  ( 0.0000000000000000000, 1.000000000000000000, 0.0000000000000000000 ) ) ;
#206 = DIRECTION ( 'NONE',  ( -3.491481338843133355E-15, 1.224646799147353207E-16, -1.000000000000000000 ) ) ;
#207 = DIRECTION ( 'NONE',  ( 3.491481338843133355E-15, -1.227517819005651059E-16, 1.000000000000000000 ) ) ;
#208 = APPROVAL_DATE_TIME ( #155, #154 ) ;
#209 = AXIS2_PLACEMENT_3D ( 'NONE', #168, #150, #97 ) ;
#210 = CC_DESIGN_PERSON_AND_ORGANIZATION_ASSIGNMENT ( #158, #121, ( #17 ) ) ;
#211 = SECURITY_CLASSIFICATION_LEVEL ( 'unclassified' ) ;
#212 = COORDINATED_UNIVERSAL_TIME_OFFSET ( 1, 0, .AHEAD. ) ;
#213 =( NAMED_UNIT ( * ) SI_UNIT ( $, .STERADIAN. ) SOLID_ANGLE_UNIT ( ) );
#214 = CC_DESIGN_APPROVAL ( #154, ( #28 ) ) ;
#215 = LOCAL_TIME ( 15, 59, 18.00000000000000000, #107 ) ;
#216 = CLOSED_SHELL ( 'NONE', ( #90, #142, #183 ) ) ;
#217 = EDGE_LOOP ( 'NONE', ( #109 ) ) ;
#218 = CARTESIAN_POINT ( 'NONE',  ( -1.282754905350004587E-30, 4.499298539707956128E-32, -3.673956068672651857E-16 ) ) ;
#219 = CONICAL_SURFACE ( 'NONE', #43, 1.199999999999993738, 0.7853981633974453924 ) ;
#220 = DIRECTION ( 'NONE',  ( -4.285855558155653280E-31, -1.000000000000000000, -1.227517819005651059E-16 ) ) ;
#221 = DIRECTION ( 'NONE',  ( -4.275831445896958607E-31, -1.000000000000000000, -1.224646799147353207E-16 ) ) ;
#222 = PLANE ( 'NONE',  #124 ) ;
#223 = DIRECTION ( 'NONE',  ( 0.0000000000000000000, -1.000000000000000000, 0.0000000000000000000 ) ) ;
ENDSEC;
END-ISO-10303-21;
