ISO-10303-21;
HEADER;
FILE_DESCRIPTION (( 'STEP AP203' ),
    '1' );
FILE_NAME ('964141.step',
    '2021-11-16T14:59:17',
    ( '' ),
    ( '' ),
    'SwSTEP 2.0',
    'SolidWorks 2019',
    '' );
FILE_SCHEMA (( 'CONFIG_CONTROL_DESIGN' ));
ENDSEC;

DATA;
#1 = ORIENTED_EDGE ( 'NONE', *, *, #79, .F. ) ;
#2 = CC_DESIGN_DATE_AND_TIME_ASSIGNMENT ( #103, #172, ( #48 ) ) ;
#3 = AXIS2_PLACEMENT_3D ( 'NONE', #156, #78, #142 ) ;
#4 = FACE_OUTER_BOUND ( 'NONE', #54, .T. ) ;
#5 = CC_DESIGN_PERSON_AND_ORGANIZATION_ASSIGNMENT ( #67, #33, ( #151 ) ) ;
#6 = CARTESIAN_POINT ( 'NONE',  ( 1.326762908760390423E-13, 8.998558695971030697E-33, 38.00000000000000000 ) ) ;
#7 = LOCAL_TIME ( 15, 59, 17.00000000000000000, #212 ) ;
#8 = FACE_OUTER_BOUND ( 'NONE', #153, .T. ) ;
#9 = CARTESIAN_POINT ( 'NONE',  ( 2.824750139003791239E-14, -2.872890004500777488E-16, 8.090405947693660949 ) ) ;
#10 = APPROVAL ( #115, 'UNSPECIFIED' ) ;
#11 = FACE_OUTER_BOUND ( 'NONE', #154, .T. ) ;
#12 = VERTEX_POINT ( 'NONE', #126 ) ;
#13 = PERSON_AND_ORGANIZATION ( #179, #71 ) ;
#14 = APPLICATION_CONTEXT ( 'configuration controlled 3d designs of mechanical parts and assemblies' ) ;
#15 = APPROVAL_STATUS ( 'not_yet_approved' ) ;
#16 = AXIS2_PLACEMENT_3D ( 'NONE', #6, #60, #112 ) ;
#17 = PERSON_AND_ORGANIZATION ( #179, #71 ) ;
#18 = VERTEX_POINT ( 'NONE', #146 ) ;
#19 = AXIS2_PLACEMENT_3D ( 'NONE', #92, #109, #45 ) ;
#20 = ADVANCED_FACE ( 'NONE', ( #4, #75 ), #206, .F. ) ;
#21 = EDGE_LOOP ( 'NONE', ( #107 ) ) ;
#22 = EDGE_LOOP ( 'NONE', ( #1 ) ) ;
#23 = EDGE_LOOP ( 'NONE', ( #40 ) ) ;
#24 = CIRCLE ( 'NONE', #122, 1.149999999999999023 ) ;
#25 = ORIENTED_EDGE ( 'NONE', *, *, #102, .F. ) ;
#26 = CARTESIAN_POINT ( 'NONE',  ( 0.0000000000000000000, 0.0000000000000000000, 0.0000000000000000000 ) ) ;
#27 = CARTESIAN_POINT ( 'NONE',  ( 1.316288464743861212E-13, -4.616918432785521081E-15, 37.69999999999999574 ) ) ;
#28 = DIRECTION ( 'NONE',  ( 4.275831445896958607E-31, 1.000000000000000000, 1.224646799147353207E-16 ) ) ;
#29 = APPLICATION_CONTEXT ( 'configuration controlled 3d designs of mechanical parts and assemblies' ) ;
#30 = DIRECTION ( 'NONE',  ( -4.275831445896958607E-31, -1.000000000000000000, -1.224646799147353207E-16 ) ) ;
#31 = FACE_OUTER_BOUND ( 'NONE', #22, .T. ) ;
#32 = APPLICATION_PROTOCOL_DEFINITION ( 'international standard', 'config_control_design', 1994, #29 ) ;
#33 = PERSON_AND_ORGANIZATION_ROLE ( 'creator' ) ;
#34 = APPROVAL_DATE_TIME ( #69, #190 ) ;
#35 = LOCAL_TIME ( 15, 59, 17.00000000000000000, #99 ) ;
#36 = CALENDAR_DATE ( 2021, 16, 11 ) ;
#37 = CC_DESIGN_PERSON_AND_ORGANIZATION_ASSIGNMENT ( #17, #84, ( #68 ) ) ;
#38 = AXIS2_PLACEMENT_3D ( 'NONE', #41, #114, #30 ) ;
#39 = EDGE_LOOP ( 'NONE', ( #194 ) ) ;
#40 = ORIENTED_EDGE ( 'NONE', *, *, #79, .T. ) ;
#41 = CARTESIAN_POINT ( 'NONE',  ( 2.007601769834801364E-14, 1.124819836996384721E-32, 5.750000000000000000 ) ) ;
#42 = DIRECTION ( 'NONE',  ( 3.491481338843133355E-15, -1.227517819005651059E-16, 1.000000000000000000 ) ) ;
#43 = DIRECTION ( 'NONE',  ( 0.0000000000000000000, 1.000000000000000000, 0.0000000000000000000 ) ) ;
#44 = DIRECTION ( 'NONE',  ( -4.275831445896958607E-31, -1.000000000000000000, -1.224646799147353207E-16 ) ) ;
#45 = DIRECTION ( 'NONE',  ( -4.285855558155653280E-31, -1.000000000000000000, -1.227517819005651305E-16 ) ) ;
#46 =( LENGTH_UNIT ( ) NAMED_UNIT ( * ) SI_UNIT ( .MILLI., .METRE. ) );
#47 = ADVANCED_FACE ( 'NONE', ( #210, #91 ), #76, .T. ) ;
#48 = SECURITY_CLASSIFICATION ( '', '', #150 ) ;
#49 = MECHANICAL_CONTEXT ( 'NONE', #29, 'mechanical' ) ;
#50 = DATE_AND_TIME ( #207, #157 ) ;
#51 = PERSON_AND_ORGANIZATION ( #179, #71 ) ;
#52 = ORIENTED_EDGE ( 'NONE', *, *, #208, .T. ) ;
#53 = APPROVAL_PERSON_ORGANIZATION ( #167, #190, #136 ) ;
#54 = EDGE_LOOP ( 'NONE', ( #73 ) ) ;
#55 = CC_DESIGN_PERSON_AND_ORGANIZATION_ASSIGNMENT ( #192, #171, ( #68 ) ) ;
#56 = CARTESIAN_POINT ( 'NONE',  ( 2.007601769834801364E-14, 0.0000000000000000000, 5.749999999999999112 ) ) ;
#57 = APPROVAL_ROLE ( '' ) ;
#58 = DIRECTION ( 'NONE',  ( 0.0000000000000000000, -1.000000000000000000, 0.0000000000000000000 ) ) ;
#59 = APPROVAL_PERSON_ORGANIZATION ( #83, #149, #166 ) ;
#60 = DIRECTION ( 'NONE',  ( -3.491481338843133355E-15, 1.224646799147353207E-16, -1.000000000000000000 ) ) ;
#61 = ADVANCED_FACE ( 'NONE', ( #11 ), #182, .F. ) ;
#62 = SHAPE_DEFINITION_REPRESENTATION ( #81, #72 ) ;
#63 = DIRECTION ( 'NONE',  ( -4.285855558155653280E-31, -1.000000000000000000, -1.227517819005651059E-16 ) ) ;
#64 = DIRECTION ( 'NONE',  ( 0.0000000000000000000, -1.000000000000000000, 0.0000000000000000000 ) ) ;
#65 = VERTEX_POINT ( 'NONE', #162 ) ;
#66 = DATE_TIME_ROLE ( 'creation_date' ) ;
#67 = PERSON_AND_ORGANIZATION ( #179, #71 ) ;
#68 = PRODUCT_DEFINITION_FORMATION_WITH_SPECIFIED_SOURCE ( 'ANY', '', #118, .NOT_KNOWN. ) ;
#69 = DATE_AND_TIME ( #222, #141 ) ;
#70 = AXIS2_PLACEMENT_3D ( 'NONE', #155, #80, #44 ) ;
#71 = ORGANIZATION ( 'UNSPECIFIED', 'UNSPECIFIED', '' ) ;
#72 = ADVANCED_BREP_SHAPE_REPRESENTATION ( '964141', ( #159, #86, #137 ), #77 ) ;
#73 = ORIENTED_EDGE ( 'NONE', *, *, #186, .T. ) ;
#74 = CIRCLE ( 'NONE', #213, 1.150000000000000577 ) ;
#75 = FACE_OUTER_BOUND ( 'NONE', #21, .T. ) ;
#76 = CYLINDRICAL_SURFACE ( 'NONE', #19, 1.149999999999999911 ) ;
#77 =( GEOMETRIC_REPRESENTATION_CONTEXT ( 3 ) GLOBAL_UNCERTAINTY_ASSIGNED_CONTEXT ( ( #198 ) ) GLOBAL_UNIT_ASSIGNED_CONTEXT ( ( #46, #135, #218 ) ) REPRESENTATION_CONTEXT ( 'NONE', 'WORKASPACE' ) );
#78 = DIRECTION ( 'NONE',  ( -3.491481338843133355E-15, 1.224646799147353207E-16, -1.000000000000000000 ) ) ;
#79 = EDGE_CURVE ( 'NONE', #161, #161, #24, .T. ) ;
#80 = DIRECTION ( 'NONE',  ( 3.491481338843133355E-15, -1.224646799147353207E-16, 1.000000000000000000 ) ) ;
#81 = PRODUCT_DEFINITION_SHAPE ( 'NONE', 'NONE',  #151 ) ;
#82 = CARTESIAN_POINT ( 'NONE',  ( 1.326762908760390423E-13, -4.653657836759941941E-15, 38.00000000000000000 ) ) ;
#83 = PERSON_AND_ORGANIZATION ( #179, #71 ) ;
#84 = PERSON_AND_ORGANIZATION_ROLE ( 'design_supplier' ) ;
#85 = AXIS2_PLACEMENT_3D ( 'NONE', #82, #131, #204 ) ;
#86 = MANIFOLD_SOLID_BREP ( 'Corps-Déplacer/Copier1[2]', #94 ) ;
#87 = EDGE_LOOP ( 'NONE', ( #124 ) ) ;
#88 = DESIGN_CONTEXT ( 'detailed design', #14, 'design' ) ;
#89 = EDGE_LOOP ( 'NONE', ( #25 ) ) ;
#90 = APPROVAL_DATE_TIME ( #127, #10 ) ;
#91 = FACE_OUTER_BOUND ( 'NONE', #195, .T. ) ;
#92 = CARTESIAN_POINT ( 'NONE',  ( -6.413731847436034514E-31, 0.0000000000000000000, -1.836965810494968570E-16 ) ) ;
#93 = CARTESIAN_POINT ( 'NONE',  ( 2.007601769834801364E-14, -7.058227459282492724E-16, 5.749999999999999112 ) ) ;
#94 = CLOSED_SHELL ( 'NONE', ( #110, #47, #165 ) ) ;
#95 = PLANE ( 'NONE',  #16 ) ;
#96 = DIRECTION ( 'NONE',  ( 3.491481338843133355E-15, -1.227517819005651059E-16, 1.000000000000000000 ) ) ;
#97 = DIRECTION ( 'NONE',  ( -3.491481338843133355E-15, 1.227517819005651059E-16, -1.000000000000000000 ) ) ;
#98 = COORDINATED_UNIVERSAL_TIME_OFFSET ( 1, 0, .AHEAD. ) ;
#99 = COORDINATED_UNIVERSAL_TIME_OFFSET ( 1, 0, .AHEAD. ) ;
#100 = CLOSED_SHELL ( 'NONE', ( #130, #200, #152, #20, #61 ) ) ;
#101 = APPROVAL_DATE_TIME ( #50, #149 ) ;
#102 = EDGE_CURVE ( 'NONE', #145, #145, #163, .T. ) ;
#103 = DATE_AND_TIME ( #36, #164 ) ;
#104 = AXIS2_PLACEMENT_3D ( 'NONE', #201, #211, #184 ) ;
#105 = CC_DESIGN_APPROVAL ( #190, ( #68 ) ) ;
#106 = PRODUCT_RELATED_PRODUCT_CATEGORY ( 'detail', '', ( #118 ) ) ;
#107 = ORIENTED_EDGE ( 'NONE', *, *, #102, .T. ) ;
#108 = DIRECTION ( 'NONE',  ( 3.491481338843133355E-15, -1.227517819005651059E-16, 1.000000000000000000 ) ) ;
#109 = DIRECTION ( 'NONE',  ( 3.491481338843133355E-15, -1.227517819005651059E-16, 1.000000000000000000 ) ) ;
#110 = ADVANCED_FACE ( 'NONE', ( #129 ), #128, .T. ) ;
#111 = CARTESIAN_POINT ( 'NONE',  ( -4.928733891878996542E-31, -5.220882699138851310E-33, -1.411645491856496967E-16 ) ) ;
#112 = DIRECTION ( 'NONE',  ( 4.275831445896958607E-31, 1.000000000000000000, 1.224646799147353207E-16 ) ) ;
#113 = DIRECTION ( 'NONE',  ( -3.491481338843133355E-15, 1.224646799147353207E-16, -1.000000000000000000 ) ) ;
#114 = DIRECTION ( 'NONE',  ( 3.491481338843133355E-15, -1.224646799147353207E-16, 1.000000000000000000 ) ) ;
#115 = APPROVAL_STATUS ( 'not_yet_approved' ) ;
#116 = CONICAL_SURFACE ( 'NONE', #85, 1.199999999999993738, 0.7853981633974453924 ) ;
#117 = CALENDAR_DATE ( 2021, 16, 11 ) ;
#118 = PRODUCT ( '964141', '964141', '', ( #49 ) ) ;
#119 = APPROVAL_STATUS ( 'not_yet_approved' ) ;
#120 = COORDINATED_UNIVERSAL_TIME_OFFSET ( 1, 0, .AHEAD. ) ;
#121 = PERSON_AND_ORGANIZATION_ROLE ( 'classification_officer' ) ;
#122 = AXIS2_PLACEMENT_3D ( 'NONE', #111, #202, #63 ) ;
#123 = ORIENTED_EDGE ( 'NONE', *, *, #180, .T. ) ;
#124 = ORIENTED_EDGE ( 'NONE', *, *, #208, .F. ) ;
#125 = AXIS2_PLACEMENT_3D ( 'NONE', #181, #42, #58 ) ;
#126 = CARTESIAN_POINT ( 'NONE',  ( 1.316288464743861212E-13, 1.499999999999989120, 37.69999999999999574 ) ) ;
#127 = DATE_AND_TIME ( #175, #7 ) ;
#128 = PLANE ( 'NONE',  #70 ) ;
#129 = FACE_OUTER_BOUND ( 'NONE', #39, .T. ) ;
#130 = ADVANCED_FACE ( 'NONE', ( #8, #214 ), #178, .T. ) ;
#131 = DIRECTION ( 'NONE',  ( -3.491481338843133355E-15, 1.224646799147353207E-16, -1.000000000000000000 ) ) ;
#132 = CIRCLE ( 'NONE', #3, 1.199999999999993738 ) ;
#133 = DIRECTION ( 'NONE',  ( -3.491481338843133355E-15, 1.224646799147353207E-16, -1.000000000000000000 ) ) ;
#134 = PERSON_AND_ORGANIZATION ( #179, #71 ) ;
#135 =( NAMED_UNIT ( * ) PLANE_ANGLE_UNIT ( ) SI_UNIT ( $, .RADIAN. ) );
#136 = APPROVAL_ROLE ( '' ) ;
#137 = AXIS2_PLACEMENT_3D ( 'NONE', #147, #189, #191 ) ;
#138 = ORIENTED_EDGE ( 'NONE', *, *, #169, .F. ) ;
#139 = CIRCLE ( 'NONE', #188, 1.499999999999993783 ) ;
#140 = ORIENTED_EDGE ( 'NONE', *, *, #180, .F. ) ;
#141 = LOCAL_TIME ( 15, 59, 17.00000000000000000, #120 ) ;
#142 = DIRECTION ( 'NONE',  ( 0.0000000000000000000, 1.000000000000000000, 0.0000000000000000000 ) ) ;
#143 = CC_DESIGN_PERSON_AND_ORGANIZATION_ASSIGNMENT ( #51, #121, ( #48 ) ) ;
#144 = FACE_OUTER_BOUND ( 'NONE', #209, .T. ) ;
#145 = VERTEX_POINT ( 'NONE', #217 ) ;
#146 = CARTESIAN_POINT ( 'NONE',  ( 1.326762908760390423E-13, 1.199999999999989297, 38.00000000000000000 ) ) ;
#147 = CARTESIAN_POINT ( 'NONE',  ( 0.0000000000000000000, 0.0000000000000000000, 0.0000000000000000000 ) ) ;
#148 = CC_DESIGN_APPROVAL ( #149, ( #151 ) ) ;
#149 = APPROVAL ( #119, 'UNSPECIFIED' ) ;
#150 = SECURITY_CLASSIFICATION_LEVEL ( 'unclassified' ) ;
#151 = PRODUCT_DEFINITION ( 'UNKNOWN', '', #68, #88 ) ;
#152 = ADVANCED_FACE ( 'NONE', ( #185 ), #95, .F. ) ;
#153 = EDGE_LOOP ( 'NONE', ( #123 ) ) ;
#154 = EDGE_LOOP ( 'NONE', ( #174 ) ) ;
#155 = CARTESIAN_POINT ( 'NONE',  ( 2.007601769834801364E-14, 1.124819836996384721E-32, 5.750000000000000000 ) ) ;
#156 = CARTESIAN_POINT ( 'NONE',  ( 1.326762908760390423E-13, -4.653657836759941941E-15, 38.00000000000000000 ) ) ;
#157 = LOCAL_TIME ( 15, 59, 17.00000000000000000, #98 ) ;
#158 = CC_DESIGN_DATE_AND_TIME_ASSIGNMENT ( #168, #66, ( #151 ) ) ;
#159 = MANIFOLD_SOLID_BREP ( 'Corps-Déplacer/Copier1[1]', #100 ) ;
#160 = PLANE ( 'NONE',  #104 ) ;
#161 = VERTEX_POINT ( 'NONE', #215 ) ;
#162 = CARTESIAN_POINT ( 'NONE',  ( 2.007601769834801364E-14, -1.150000000000001243, 5.749999999999999112 ) ) ;
#163 = CIRCLE ( 'NONE', #170, 1.499999999999991784 ) ;
#164 = LOCAL_TIME ( 15, 59, 17.00000000000000000, #193 ) ;
#165 = ADVANCED_FACE ( 'NONE', ( #31 ), #160, .F. ) ;
#166 = APPROVAL_ROLE ( '' ) ;
#167 = PERSON_AND_ORGANIZATION ( #179, #71 ) ;
#168 = DATE_AND_TIME ( #117, #35 ) ;
#169 = EDGE_CURVE ( 'NONE', #65, #65, #223, .T. ) ;
#170 = AXIS2_PLACEMENT_3D ( 'NONE', #9, #97, #43 ) ;
#171 = PERSON_AND_ORGANIZATION_ROLE ( 'creator' ) ;
#172 = DATE_TIME_ROLE ( 'classification_date' ) ;
#173 = CC_DESIGN_PERSON_AND_ORGANIZATION_ASSIGNMENT ( #13, #187, ( #118 ) ) ;
#174 = ORIENTED_EDGE ( 'NONE', *, *, #186, .F. ) ;
#175 = CALENDAR_DATE ( 2021, 16, 11 ) ;
#176 = EDGE_LOOP ( 'NONE', ( #52 ) ) ;
#177 = DIRECTION ( 'NONE',  ( -4.347792104868795754E-31, -1.000000000000000000, -1.227517819005651059E-16 ) ) ;
#178 = CYLINDRICAL_SURFACE ( 'NONE', #196, 1.499999999999991784 ) ;
#179 = PERSON ( 'UNSPECIFIED', 'UNSPECIFIED', 'UNSPECIFIED', ('UNSPECIFIED'), ('UNSPECIFIED'), ('UNSPECIFIED') ) ;
#180 = EDGE_CURVE ( 'NONE', #12, #12, #139, .T. ) ;
#181 = CARTESIAN_POINT ( 'NONE',  ( 2.007601769834801364E-14, -7.058227459282492724E-16, 5.749999999999999112 ) ) ;
#182 = PLANE ( 'NONE',  #38 ) ;
#183 = APPROVAL_PERSON_ORGANIZATION ( #134, #10, #57 ) ;
#184 = DIRECTION ( 'NONE',  ( -4.275831445896958607E-31, -1.000000000000000000, -1.224646799147353207E-16 ) ) ;
#185 = FACE_OUTER_BOUND ( 'NONE', #87, .T. ) ;
#186 = EDGE_CURVE ( 'NONE', #199, #199, #74, .T. ) ;
#187 = PERSON_AND_ORGANIZATION_ROLE ( 'design_owner' ) ;
#188 = AXIS2_PLACEMENT_3D ( 'NONE', #27, #133, #203 ) ;
#189 = DIRECTION ( 'NONE',  ( 0.0000000000000000000, 0.0000000000000000000, 1.000000000000000000 ) ) ;
#190 = APPROVAL ( #15, 'UNSPECIFIED' ) ;
#191 = DIRECTION ( 'NONE',  ( 1.000000000000000000, 0.0000000000000000000, 0.0000000000000000000 ) ) ;
#192 = PERSON_AND_ORGANIZATION ( #179, #71 ) ;
#193 = COORDINATED_UNIVERSAL_TIME_OFFSET ( 1, 0, .AHEAD. ) ;
#194 = ORIENTED_EDGE ( 'NONE', *, *, #169, .T. ) ;
#195 = EDGE_LOOP ( 'NONE', ( #138 ) ) ;
#196 = AXIS2_PLACEMENT_3D ( 'NONE', #26, #113, #28 ) ;
#197 = CC_DESIGN_APPROVAL ( #10, ( #48 ) ) ;
#198 = UNCERTAINTY_MEASURE_WITH_UNIT (LENGTH_MEASURE( 1.000000000000000082E-05 ), #46, 'distance_accuracy_value', 'NONE');
#199 = VERTEX_POINT ( 'NONE', #205 ) ;
#200 = ADVANCED_FACE ( 'NONE', ( #144, #216 ), #116, .T. ) ;
#201 = CARTESIAN_POINT ( 'NONE',  ( -1.282754905350004587E-30, 4.499298539707956128E-32, -3.673956068672651857E-16 ) ) ;
#202 = DIRECTION ( 'NONE',  ( 3.491481338843133355E-15, -1.227517819005651059E-16, 1.000000000000000000 ) ) ;
#203 = DIRECTION ( 'NONE',  ( 0.0000000000000000000, 1.000000000000000000, 0.0000000000000000000 ) ) ;
#204 = DIRECTION ( 'NONE',  ( 0.0000000000000000000, 1.000000000000000000, 0.0000000000000000000 ) ) ;
#205 = CARTESIAN_POINT ( 'NONE',  ( 2.007601769834801364E-14, -1.150000000000001243, 5.749999999999999112 ) ) ;
#206 = TOROIDAL_SURFACE ( 'NONE', #220, 9.150000000000000355, 8.000000000000000000 ) ;
#207 = CALENDAR_DATE ( 2021, 16, 11 ) ;
#208 = EDGE_CURVE ( 'NONE', #18, #18, #132, .T. ) ;
#209 = EDGE_LOOP ( 'NONE', ( #140 ) ) ;
#210 = FACE_OUTER_BOUND ( 'NONE', #23, .T. ) ;
#211 = DIRECTION ( 'NONE',  ( 3.491481338843133355E-15, -1.224646799147353207E-16, 1.000000000000000000 ) ) ;
#212 = COORDINATED_UNIVERSAL_TIME_OFFSET ( 1, 0, .AHEAD. ) ;
#213 = AXIS2_PLACEMENT_3D ( 'NONE', #93, #96, #64 ) ;
#214 = FACE_OUTER_BOUND ( 'NONE', #89, .T. ) ;
#215 = CARTESIAN_POINT ( 'NONE',  ( -9.857467783757993084E-31, -1.149999999999999023, -2.823290983712994427E-16 ) ) ;
#216 = FACE_BOUND ( 'NONE', #176, .T. ) ;
#217 = CARTESIAN_POINT ( 'NONE',  ( 2.824750139003791239E-14, 1.499999999999991562, 8.090405947693660949 ) ) ;
#218 =( NAMED_UNIT ( * ) SI_UNIT ( $, .STERADIAN. ) SOLID_ANGLE_UNIT ( ) );
#219 = APPLICATION_PROTOCOL_DEFINITION ( 'international standard', 'config_control_design', 1994, #14 ) ;
#220 = AXIS2_PLACEMENT_3D ( 'NONE', #56, #108, #177 ) ;
#221 = CC_DESIGN_SECURITY_CLASSIFICATION ( #48, ( #68 ) ) ;
#222 = CALENDAR_DATE ( 2021, 16, 11 ) ;
#223 = CIRCLE ( 'NONE', #125, 1.150000000000000577 ) ;
ENDSEC;
END-ISO-10303-21;
