ISO-10303-21;
HEADER;
FILE_DESCRIPTION (( 'STEP AP203' ),
    '1' );
FILE_NAME ('964140.step',
    '2021-11-16T14:59:16',
    ( '' ),
    ( '' ),
    'SwSTEP 2.0',
    'SolidWorks 2019',
    '' );
FILE_SCHEMA (( 'CONFIG_CONTROL_DESIGN' ));
ENDSEC;

DATA;
#1 = PERSON_AND_ORGANIZATION ( #10, #12 ) ;
#2 = CC_DESIGN_PERSON_AND_ORGANIZATION_ASSIGNMENT ( #32, #67, ( #102 ) ) ;
#3 = PERSON_AND_ORGANIZATION ( #10, #12 ) ;
#4 = COORDINATED_UNIVERSAL_TIME_OFFSET ( 1, 0, .AHEAD. ) ;
#5 = COORDINATED_UNIVERSAL_TIME_OFFSET ( 1, 0, .AHEAD. ) ;
#6 = FACE_OUTER_BOUND ( 'NONE', #131, .T. ) ;
#7 = TOROIDAL_SURFACE ( 'NONE', #138, 9.099999999999999645, 8.000000000000000000 ) ;
#8 = FACE_OUTER_BOUND ( 'NONE', #177, .T. ) ;
#9 = EDGE_CURVE ( 'NONE', #43, #43, #168, .T. ) ;
#10 = PERSON ( 'UNSPECIFIED', 'UNSPECIFIED', 'UNSPECIFIED', ('UNSPECIFIED'), ('UNSPECIFIED'), ('UNSPECIFIED') ) ;
#11 = DIRECTION ( 'NONE',  ( -3.491481338843133355E-15, 1.224646799147353207E-16, -1.000000000000000000 ) ) ;
#12 = ORGANIZATION ( 'UNSPECIFIED', 'UNSPECIFIED', '' ) ;
#13 = VERTEX_POINT ( 'NONE', #80 ) ;
#14 = DIRECTION ( 'NONE',  ( 3.491481338843133355E-15, -1.227517819005651059E-16, 1.000000000000000000 ) ) ;
#15 = ADVANCED_FACE ( 'NONE', ( #6, #74 ), #214, .T. ) ;
#16 = DIRECTION ( 'NONE',  ( 3.491481338843133355E-15, -1.227517819005651059E-16, 1.000000000000000000 ) ) ;
#17 = DATE_TIME_ROLE ( 'classification_date' ) ;
#18 = APPROVAL_STATUS ( 'not_yet_approved' ) ;
#19 = ADVANCED_FACE ( 'NONE', ( #101, #97 ), #7, .F. ) ;
#20 = CALENDAR_DATE ( 2021, 16, 11 ) ;
#21 = ORIENTED_EDGE ( 'NONE', *, *, #132, .F. ) ;
#22 = UNCERTAINTY_MEASURE_WITH_UNIT (LENGTH_MEASURE( 1.000000000000000082E-05 ), #108, 'distance_accuracy_value', 'NONE');
#23 = ORIENTED_EDGE ( 'NONE', *, *, #132, .T. ) ;
#24 = APPROVAL_ROLE ( '' ) ;
#25 = ORIENTED_EDGE ( 'NONE', *, *, #215, .T. ) ;
#26 = EDGE_LOOP ( 'NONE', ( #21 ) ) ;
#27 = DIRECTION ( 'NONE',  ( 0.0000000000000000000, -1.000000000000000000, 0.0000000000000000000 ) ) ;
#28 = CARTESIAN_POINT ( 'NONE',  ( 1.920314736363723345E-14, 1.124819836996384721E-32, 5.500000000000000000 ) ) ;
#29 = CARTESIAN_POINT ( 'NONE',  ( 1.316288464743861212E-13, 1.499999999999989120, 37.69999999999999574 ) ) ;
#30 = DIRECTION ( 'NONE',  ( -3.491481338843133355E-15, 1.224646799147353207E-16, -1.000000000000000000 ) ) ;
#31 = CARTESIAN_POINT ( 'NONE',  ( 1.920314736363723030E-14, 0.0000000000000000000, 5.499999999999999112 ) ) ;
#32 = PERSON_AND_ORGANIZATION ( #10, #12 ) ;
#33 = APPROVAL_PERSON_ORGANIZATION ( #87, #174, #24 ) ;
#34 = PERSON_AND_ORGANIZATION ( #10, #12 ) ;
#35 =( NAMED_UNIT ( * ) PLANE_ANGLE_UNIT ( ) SI_UNIT ( $, .RADIAN. ) );
#36 = CONICAL_SURFACE ( 'NONE', #53, 1.199999999999993738, 0.7853981633974453924 ) ;
#37 = CC_DESIGN_APPROVAL ( #76, ( #99 ) ) ;
#38 = APPROVAL ( #18, 'UNSPECIFIED' ) ;
#39 = CLOSED_SHELL ( 'NONE', ( #98, #116, #204 ) ) ;
#40 = ADVANCED_FACE ( 'NONE', ( #114, #207 ), #36, .T. ) ;
#41 = FACE_OUTER_BOUND ( 'NONE', #180, .T. ) ;
#42 = CIRCLE ( 'NONE', #75, 1.100000000000000977 ) ;
#43 = VERTEX_POINT ( 'NONE', #117 ) ;
#44 = CARTESIAN_POINT ( 'NONE',  ( 1.920314736363723345E-14, 1.124819836996384721E-32, 5.500000000000000000 ) ) ;
#45 = AXIS2_PLACEMENT_3D ( 'NONE', #160, #144, #104 ) ;
#46 = CARTESIAN_POINT ( 'NONE',  ( 1.316288464743861212E-13, -4.616918432785521081E-15, 37.69999999999999574 ) ) ;
#47 = APPLICATION_PROTOCOL_DEFINITION ( 'international standard', 'config_control_design', 1994, #111 ) ;
#48 = PRODUCT_DEFINITION_SHAPE ( 'NONE', 'NONE',  #84 ) ;
#49 = CALENDAR_DATE ( 2021, 16, 11 ) ;
#50 = ORIENTED_EDGE ( 'NONE', *, *, #9, .F. ) ;
#51 = CARTESIAN_POINT ( 'NONE',  ( 1.920314736363723030E-14, -1.100000000000001643, 5.499999999999999112 ) ) ;
#52 = CARTESIAN_POINT ( 'NONE',  ( 2.792486495264543147E-14, -3.066338529075430085E-16, 7.997999199359331790 ) ) ;
#53 = AXIS2_PLACEMENT_3D ( 'NONE', #186, #217, #119 ) ;
#54 =( GEOMETRIC_REPRESENTATION_CONTEXT ( 3 ) GLOBAL_UNCERTAINTY_ASSIGNED_CONTEXT ( ( #22 ) ) GLOBAL_UNIT_ASSIGNED_CONTEXT ( ( #108, #35, #85 ) ) REPRESENTATION_CONTEXT ( 'NONE', 'WORKASPACE' ) );
#55 = ORIENTED_EDGE ( 'NONE', *, *, #9, .T. ) ;
#56 = EDGE_LOOP ( 'NONE', ( #163 ) ) ;
#57 = APPROVAL_DATE_TIME ( #199, #76 ) ;
#58 = DIRECTION ( 'NONE',  ( 4.275831445896958607E-31, 1.000000000000000000, 1.224646799147353207E-16 ) ) ;
#59 = CC_DESIGN_APPROVAL ( #174, ( #84 ) ) ;
#60 = CC_DESIGN_PERSON_AND_ORGANIZATION_ASSIGNMENT ( #145, #212, ( #223 ) ) ;
#61 = AXIS2_PLACEMENT_3D ( 'NONE', #113, #95, #165 ) ;
#62 = LOCAL_TIME ( 15, 59, 16.00000000000000000, #5 ) ;
#63 = DIRECTION ( 'NONE',  ( -3.491481338843133355E-15, 1.224646799147353207E-16, -1.000000000000000000 ) ) ;
#64 = VERTEX_POINT ( 'NONE', #51 ) ;
#65 = FACE_OUTER_BOUND ( 'NONE', #56, .T. ) ;
#66 = AXIS2_PLACEMENT_3D ( 'NONE', #28, #220, #79 ) ;
#67 = PERSON_AND_ORGANIZATION_ROLE ( 'design_owner' ) ;
#68 = AXIS2_PLACEMENT_3D ( 'NONE', #52, #127, #197 ) ;
#69 = AXIS2_PLACEMENT_3D ( 'NONE', #46, #218, #141 ) ;
#70 = PERSON_AND_ORGANIZATION ( #10, #12 ) ;
#71 = APPROVAL_DATE_TIME ( #193, #38 ) ;
#72 = ORIENTED_EDGE ( 'NONE', *, *, #215, .F. ) ;
#73 = DATE_AND_TIME ( #124, #62 ) ;
#74 = FACE_OUTER_BOUND ( 'NONE', #112, .T. ) ;
#75 = AXIS2_PLACEMENT_3D ( 'NONE', #82, #183, #169 ) ;
#76 = APPROVAL ( #83, 'UNSPECIFIED' ) ;
#77 = PLANE ( 'NONE',  #192 ) ;
#78 = ADVANCED_BREP_SHAPE_REPRESENTATION ( '964140', ( #201, #123, #45 ), #54 ) ;
#79 = DIRECTION ( 'NONE',  ( -4.275831445896958607E-31, -1.000000000000000000, -1.224646799147353207E-16 ) ) ;
#80 = CARTESIAN_POINT ( 'NONE',  ( 1.920314736363723030E-14, -1.100000000000001643, 5.499999999999999112 ) ) ;
#81 = PLANE ( 'NONE',  #164 ) ;
#82 = CARTESIAN_POINT ( 'NONE',  ( 1.920314736363723030E-14, -6.751348004531079097E-16, 5.499999999999999112 ) ) ;
#83 = APPROVAL_STATUS ( 'not_yet_approved' ) ;
#84 = PRODUCT_DEFINITION ( 'UNKNOWN', '', #223, #198 ) ;
#85 =( NAMED_UNIT ( * ) SI_UNIT ( $, .STERADIAN. ) SOLID_ANGLE_UNIT ( ) );
#86 = EDGE_LOOP ( 'NONE', ( #25 ) ) ;
#87 = PERSON_AND_ORGANIZATION ( #10, #12 ) ;
#88 = SECURITY_CLASSIFICATION_LEVEL ( 'unclassified' ) ;
#89 = EDGE_LOOP ( 'NONE', ( #162 ) ) ;
#90 = CC_DESIGN_PERSON_AND_ORGANIZATION_ASSIGNMENT ( #70, #161, ( #99 ) ) ;
#91 = ORIENTED_EDGE ( 'NONE', *, *, #158, .F. ) ;
#92 = CIRCLE ( 'NONE', #121, 1.199999999999993738 ) ;
#93 = APPROVAL_PERSON_ORGANIZATION ( #34, #76, #142 ) ;
#94 = EDGE_LOOP ( 'NONE', ( #125 ) ) ;
#95 = DIRECTION ( 'NONE',  ( 3.491481338843133355E-15, -1.224646799147353207E-16, 1.000000000000000000 ) ) ;
#96 = AXIS2_PLACEMENT_3D ( 'NONE', #189, #170, #171 ) ;
#97 = FACE_OUTER_BOUND ( 'NONE', #213, .T. ) ;
#98 = ADVANCED_FACE ( 'NONE', ( #190 ), #209, .T. ) ;
#99 = SECURITY_CLASSIFICATION ( '', '', #88 ) ;
#100 = FACE_OUTER_BOUND ( 'NONE', #89, .T. ) ;
#101 = FACE_OUTER_BOUND ( 'NONE', #94, .T. ) ;
#102 = PRODUCT ( '964140', '964140', '', ( #126 ) ) ;
#103 = CC_DESIGN_DATE_AND_TIME_ASSIGNMENT ( #175, #191, ( #84 ) ) ;
#104 = DIRECTION ( 'NONE',  ( 1.000000000000000000, 0.0000000000000000000, 0.0000000000000000000 ) ) ;
#105 = LOCAL_TIME ( 15, 59, 16.00000000000000000, #4 ) ;
#106 = CALENDAR_DATE ( 2021, 16, 11 ) ;
#107 = DATE_AND_TIME ( #49, #139 ) ;
#108 =( LENGTH_UNIT ( ) NAMED_UNIT ( * ) SI_UNIT ( .MILLI., .METRE. ) );
#109 = APPROVAL_DATE_TIME ( #107, #174 ) ;
#110 = LOCAL_TIME ( 15, 59, 16.00000000000000000, #147 ) ;
#111 = APPLICATION_CONTEXT ( 'configuration controlled 3d designs of mechanical parts and assemblies' ) ;
#112 = EDGE_LOOP ( 'NONE', ( #50 ) ) ;
#113 = CARTESIAN_POINT ( 'NONE',  ( -1.282754905350004587E-30, 4.499298539707956128E-32, -3.673956068672651857E-16 ) ) ;
#114 = FACE_OUTER_BOUND ( 'NONE', #26, .T. ) ;
#115 = AXIS2_PLACEMENT_3D ( 'NONE', #136, #14, #222 ) ;
#116 = ADVANCED_FACE ( 'NONE', ( #100, #65 ), #152, .T. ) ;
#117 = CARTESIAN_POINT ( 'NONE',  ( 2.792486495264543147E-14, 1.499999999999991562, 7.997999199359331790 ) ) ;
#118 = DIRECTION ( 'NONE',  ( 3.491481338843133355E-15, -1.227517819005651059E-16, 1.000000000000000000 ) ) ;
#119 = DIRECTION ( 'NONE',  ( 0.0000000000000000000, 1.000000000000000000, 0.0000000000000000000 ) ) ;
#120 = APPROVAL_STATUS ( 'not_yet_approved' ) ;
#121 = AXIS2_PLACEMENT_3D ( 'NONE', #203, #63, #135 ) ;
#122 = CARTESIAN_POINT ( 'NONE',  ( 1.326762908760390423E-13, 1.199999999999989297, 38.00000000000000000 ) ) ;
#123 = MANIFOLD_SOLID_BREP ( 'Corps-Déplacer/Copier1[2]', #39 ) ;
#124 = CALENDAR_DATE ( 2021, 16, 11 ) ;
#125 = ORIENTED_EDGE ( 'NONE', *, *, #166, .T. ) ;
#126 = MECHANICAL_CONTEXT ( 'NONE', #111, 'mechanical' ) ;
#127 = DIRECTION ( 'NONE',  ( -3.491481338843133355E-15, 1.227517819005651059E-16, -1.000000000000000000 ) ) ;
#128 = CIRCLE ( 'NONE', #184, 1.100000000000000977 ) ;
#129 = CARTESIAN_POINT ( 'NONE',  ( 0.0000000000000000000, 0.0000000000000000000, 0.0000000000000000000 ) ) ;
#130 = SHAPE_DEFINITION_REPRESENTATION ( #48, #78 ) ;
#131 = EDGE_LOOP ( 'NONE', ( #23 ) ) ;
#132 = EDGE_CURVE ( 'NONE', #187, #187, #221, .T. ) ;
#133 = DIRECTION ( 'NONE',  ( 4.275831445896958607E-31, 1.000000000000000000, 1.224646799147353207E-16 ) ) ;
#134 = CIRCLE ( 'NONE', #115, 1.099999999999999423 ) ;
#135 = DIRECTION ( 'NONE',  ( 0.0000000000000000000, 1.000000000000000000, 0.0000000000000000000 ) ) ;
#136 = CARTESIAN_POINT ( 'NONE',  ( -4.714441113971214579E-31, -5.974282697127041549E-33, -1.350269600906214833E-16 ) ) ;
#137 = DIRECTION ( 'NONE',  ( 3.491481338843133355E-15, -1.224646799147353207E-16, 1.000000000000000000 ) ) ;
#138 = AXIS2_PLACEMENT_3D ( 'NONE', #31, #118, #151 ) ;
#139 = LOCAL_TIME ( 15, 59, 16.00000000000000000, #211 ) ;
#140 = APPROVAL_PERSON_ORGANIZATION ( #1, #38, #159 ) ;
#141 = DIRECTION ( 'NONE',  ( 0.0000000000000000000, 1.000000000000000000, 0.0000000000000000000 ) ) ;
#142 = APPROVAL_ROLE ( '' ) ;
#143 = VERTEX_POINT ( 'NONE', #122 ) ;
#144 = DIRECTION ( 'NONE',  ( 0.0000000000000000000, 0.0000000000000000000, 1.000000000000000000 ) ) ;
#145 = PERSON_AND_ORGANIZATION ( #10, #12 ) ;
#146 = ORIENTED_EDGE ( 'NONE', *, *, #148, .T. ) ;
#147 = COORDINATED_UNIVERSAL_TIME_OFFSET ( 1, 0, .AHEAD. ) ;
#148 = EDGE_CURVE ( 'NONE', #13, #13, #128, .T. ) ;
#149 = EDGE_LOOP ( 'NONE', ( #146 ) ) ;
#150 = LOCAL_TIME ( 15, 59, 16.00000000000000000, #216 ) ;
#151 = DIRECTION ( 'NONE',  ( -4.347973205882576304E-31, -1.000000000000000000, -1.227517819005651059E-16 ) ) ;
#152 = CYLINDRICAL_SURFACE ( 'NONE', #96, 1.100000000000000311 ) ;
#153 = AXIS2_PLACEMENT_3D ( 'NONE', #129, #30, #58 ) ;
#154 = VERTEX_POINT ( 'NONE', #219 ) ;
#155 = CC_DESIGN_PERSON_AND_ORGANIZATION_ASSIGNMENT ( #3, #173, ( #223 ) ) ;
#156 = FACE_OUTER_BOUND ( 'NONE', #200, .T. ) ;
#157 = CARTESIAN_POINT ( 'NONE',  ( 1.920314736363723030E-14, -6.751348004531079097E-16, 5.499999999999999112 ) ) ;
#158 = EDGE_CURVE ( 'NONE', #154, #154, #134, .T. ) ;
#159 = APPROVAL_ROLE ( '' ) ;
#160 = CARTESIAN_POINT ( 'NONE',  ( 0.0000000000000000000, 0.0000000000000000000, 0.0000000000000000000 ) ) ;
#161 = PERSON_AND_ORGANIZATION_ROLE ( 'classification_officer' ) ;
#162 = ORIENTED_EDGE ( 'NONE', *, *, #158, .T. ) ;
#163 = ORIENTED_EDGE ( 'NONE', *, *, #148, .F. ) ;
#164 = AXIS2_PLACEMENT_3D ( 'NONE', #44, #137, #206 ) ;
#165 = DIRECTION ( 'NONE',  ( -4.275831445896958607E-31, -1.000000000000000000, -1.224646799147353207E-16 ) ) ;
#166 = EDGE_CURVE ( 'NONE', #64, #64, #42, .T. ) ;
#167 = CARTESIAN_POINT ( 'NONE',  ( 1.326762908760390423E-13, 8.998558695971030697E-33, 38.00000000000000000 ) ) ;
#168 = CIRCLE ( 'NONE', #68, 1.499999999999991784 ) ;
#169 = DIRECTION ( 'NONE',  ( 0.0000000000000000000, -1.000000000000000000, 0.0000000000000000000 ) ) ;
#170 = DIRECTION ( 'NONE',  ( 3.491481338843133355E-15, -1.227517819005651059E-16, 1.000000000000000000 ) ) ;
#171 = DIRECTION ( 'NONE',  ( -4.285855558155653280E-31, -1.000000000000000000, -1.227517819005651059E-16 ) ) ;
#172 = APPLICATION_CONTEXT ( 'configuration controlled 3d designs of mechanical parts and assemblies' ) ;
#173 = PERSON_AND_ORGANIZATION_ROLE ( 'design_supplier' ) ;
#174 = APPROVAL ( #120, 'UNSPECIFIED' ) ;
#175 = DATE_AND_TIME ( #106, #105 ) ;
#176 = PERSON_AND_ORGANIZATION ( #10, #12 ) ;
#177 = EDGE_LOOP ( 'NONE', ( #72 ) ) ;
#178 = PERSON_AND_ORGANIZATION_ROLE ( 'creator' ) ;
#179 = CALENDAR_DATE ( 2021, 16, 11 ) ;
#180 = EDGE_LOOP ( 'NONE', ( #195 ) ) ;
#181 = CLOSED_SHELL ( 'NONE', ( #15, #40, #210, #19, #185 ) ) ;
#182 = CC_DESIGN_SECURITY_CLASSIFICATION ( #99, ( #223 ) ) ;
#183 = DIRECTION ( 'NONE',  ( 3.491481338843133355E-15, -1.227517819005651059E-16, 1.000000000000000000 ) ) ;
#184 = AXIS2_PLACEMENT_3D ( 'NONE', #157, #16, #27 ) ;
#185 = ADVANCED_FACE ( 'NONE', ( #41 ), #81, .F. ) ;
#186 = CARTESIAN_POINT ( 'NONE',  ( 1.326762908760390423E-13, -4.653657836759941941E-15, 38.00000000000000000 ) ) ;
#187 = VERTEX_POINT ( 'NONE', #29 ) ;
#188 = PRODUCT_RELATED_PRODUCT_CATEGORY ( 'detail', '', ( #102 ) ) ;
#189 = CARTESIAN_POINT ( 'NONE',  ( -6.413731847436034514E-31, 0.0000000000000000000, -1.836965810494968570E-16 ) ) ;
#190 = FACE_OUTER_BOUND ( 'NONE', #149, .T. ) ;
#191 = DATE_TIME_ROLE ( 'creation_date' ) ;
#192 = AXIS2_PLACEMENT_3D ( 'NONE', #167, #11, #133 ) ;
#193 = DATE_AND_TIME ( #20, #110 ) ;
#194 = CC_DESIGN_PERSON_AND_ORGANIZATION_ASSIGNMENT ( #176, #178, ( #84 ) ) ;
#195 = ORIENTED_EDGE ( 'NONE', *, *, #166, .F. ) ;
#196 = APPLICATION_PROTOCOL_DEFINITION ( 'international standard', 'config_control_design', 1994, #172 ) ;
#197 = DIRECTION ( 'NONE',  ( 0.0000000000000000000, 1.000000000000000000, 0.0000000000000000000 ) ) ;
#198 = DESIGN_CONTEXT ( 'detailed design', #172, 'design' ) ;
#199 = DATE_AND_TIME ( #179, #150 ) ;
#200 = EDGE_LOOP ( 'NONE', ( #91 ) ) ;
#201 = MANIFOLD_SOLID_BREP ( 'Corps-Déplacer/Copier1[1]', #181 ) ;
#202 = CC_DESIGN_APPROVAL ( #38, ( #223 ) ) ;
#203 = CARTESIAN_POINT ( 'NONE',  ( 1.326762908760390423E-13, -4.653657836759941941E-15, 38.00000000000000000 ) ) ;
#204 = ADVANCED_FACE ( 'NONE', ( #156 ), #208, .F. ) ;
#205 = CC_DESIGN_DATE_AND_TIME_ASSIGNMENT ( #73, #17, ( #99 ) ) ;
#206 = DIRECTION ( 'NONE',  ( -4.275831445896958607E-31, -1.000000000000000000, -1.224646799147353207E-16 ) ) ;
#207 = FACE_BOUND ( 'NONE', #86, .T. ) ;
#208 = PLANE ( 'NONE',  #61 ) ;
#209 = PLANE ( 'NONE',  #66 ) ;
#210 = ADVANCED_FACE ( 'NONE', ( #8 ), #77, .F. ) ;
#211 = COORDINATED_UNIVERSAL_TIME_OFFSET ( 1, 0, .AHEAD. ) ;
#212 = PERSON_AND_ORGANIZATION_ROLE ( 'creator' ) ;
#213 = EDGE_LOOP ( 'NONE', ( #55 ) ) ;
#214 = CYLINDRICAL_SURFACE ( 'NONE', #153, 1.499999999999991784 ) ;
#215 = EDGE_CURVE ( 'NONE', #143, #143, #92, .T. ) ;
#216 = COORDINATED_UNIVERSAL_TIME_OFFSET ( 1, 0, .AHEAD. ) ;
#217 = DIRECTION ( 'NONE',  ( -3.491481338843133355E-15, 1.224646799147353207E-16, -1.000000000000000000 ) ) ;
#218 = DIRECTION ( 'NONE',  ( -3.491481338843133355E-15, 1.224646799147353207E-16, -1.000000000000000000 ) ) ;
#219 = CARTESIAN_POINT ( 'NONE',  ( -9.428882227942430909E-31, -1.099999999999999423, -2.700539201812430160E-16 ) ) ;
#220 = DIRECTION ( 'NONE',  ( 3.491481338843133355E-15, -1.224646799147353207E-16, 1.000000000000000000 ) ) ;
#221 = CIRCLE ( 'NONE', #69, 1.499999999999993783 ) ;
#222 = DIRECTION ( 'NONE',  ( -4.285855558155653280E-31, -1.000000000000000000, -1.227517819005651059E-16 ) ) ;
#223 = PRODUCT_DEFINITION_FORMATION_WITH_SPECIFIED_SOURCE ( 'ANY', '', #102, .NOT_KNOWN. ) ;
ENDSEC;
END-ISO-10303-21;
