ISO-10303-21;
HEADER;
FILE_DESCRIPTION (( 'STEP AP203' ),
    '1' );
FILE_NAME ('964137.step',
    '2021-11-16T14:59:16',
    ( '' ),
    ( '' ),
    'SwSTEP 2.0',
    'SolidWorks 2019',
    '' );
FILE_SCHEMA (( 'CONFIG_CONTROL_DESIGN' ));
ENDSEC;

DATA;
#1 = CARTESIAN_POINT ( 'NONE',  ( -6.413731847436034514E-31, 0.0000000000000000000, -1.836965810494968570E-16 ) ) ;
#2 = CIRCLE ( 'NONE', #171, 1.049999999999999822 ) ;
#3 = LOCAL_TIME ( 15, 59, 16.00000000000000000, #214 ) ;
#4 = PERSON_AND_ORGANIZATION ( #142, #13 ) ;
#5 = PRODUCT_DEFINITION_SHAPE ( 'NONE', 'NONE',  #11 ) ;
#6 = PERSON_AND_ORGANIZATION_ROLE ( 'classification_officer' ) ;
#7 =( LENGTH_UNIT ( ) NAMED_UNIT ( * ) SI_UNIT ( .MILLI., .METRE. ) );
#8 = AXIS2_PLACEMENT_3D ( 'NONE', #221, #33, #118 ) ;
#9 = VERTEX_POINT ( 'NONE', #152 ) ;
#10 = APPROVAL_ROLE ( '' ) ;
#11 = PRODUCT_DEFINITION ( 'UNKNOWN', '', #144, #209 ) ;
#12 = APPLICATION_CONTEXT ( 'configuration controlled 3d designs of mechanical parts and assemblies' ) ;
#13 = ORGANIZATION ( 'UNSPECIFIED', 'UNSPECIFIED', '' ) ;
#14 = CARTESIAN_POINT ( 'NONE',  ( 1.326762908760390423E-13, 8.998558695971030697E-33, 38.00000000000000000 ) ) ;
#15 = ORIENTED_EDGE ( 'NONE', *, *, #126, .F. ) ;
#16 = DIRECTION ( 'NONE',  ( 3.491481338843133355E-15, -1.227517819005651059E-16, 1.000000000000000000 ) ) ;
#17 = PLANE ( 'NONE',  #70 ) ;
#18 = CARTESIAN_POINT ( 'NONE',  ( -1.282754905350004587E-30, 4.499298539707956128E-32, -3.673956068672651857E-16 ) ) ;
#19 = CARTESIAN_POINT ( 'NONE',  ( 0.0000000000000000000, 0.0000000000000000000, 0.0000000000000000000 ) ) ;
#20 = FACE_OUTER_BOUND ( 'NONE', #125, .T. ) ;
#21 = DATE_TIME_ROLE ( 'creation_date' ) ;
#22 = CC_DESIGN_SECURITY_CLASSIFICATION ( #94, ( #144 ) ) ;
#23 = CC_DESIGN_DATE_AND_TIME_ASSIGNMENT ( #41, #21, ( #11 ) ) ;
#24 = SECURITY_CLASSIFICATION_LEVEL ( 'unclassified' ) ;
#25 = APPROVAL_ROLE ( '' ) ;
#26 = DIRECTION ( 'NONE',  ( 1.000000000000000000, 0.0000000000000000000, 0.0000000000000000000 ) ) ;
#27 = EDGE_LOOP ( 'NONE', ( #196 ) ) ;
#28 = FACE_OUTER_BOUND ( 'NONE', #174, .T. ) ;
#29 = ORIENTED_EDGE ( 'NONE', *, *, #195, .F. ) ;
#30 = CIRCLE ( 'NONE', #165, 1.049999999999999600 ) ;
#31 = DIRECTION ( 'NONE',  ( -3.491481338843133355E-15, 1.224646799147353207E-16, -1.000000000000000000 ) ) ;
#32 = DIRECTION ( 'NONE',  ( -4.275831445896958607E-31, -1.000000000000000000, -1.224646799147353207E-16 ) ) ;
#33 = DIRECTION ( 'NONE',  ( -3.491481338843133355E-15, 1.224646799147353207E-16, -1.000000000000000000 ) ) ;
#34 = AXIS2_PLACEMENT_3D ( 'NONE', #204, #131, #50 ) ;
#35 = DIRECTION ( 'NONE',  ( 3.491481338843133355E-15, -1.227517819005651059E-16, 1.000000000000000000 ) ) ;
#36 = VERTEX_POINT ( 'NONE', #201 ) ;
#37 = MECHANICAL_CONTEXT ( 'NONE', #12, 'mechanical' ) ;
#38 = DATE_TIME_ROLE ( 'classification_date' ) ;
#39 = PERSON_AND_ORGANIZATION ( #142, #13 ) ;
#40 = AXIS2_PLACEMENT_3D ( 'NONE', #220, #31, #206 ) ;
#41 = DATE_AND_TIME ( #156, #141 ) ;
#42 = ORIENTED_EDGE ( 'NONE', *, *, #126, .T. ) ;
#43 = CONICAL_SURFACE ( 'NONE', #134, 1.199999999999993738, 0.7853981633974453924 ) ;
#44 = ORIENTED_EDGE ( 'NONE', *, *, #138, .F. ) ;
#45 = EDGE_LOOP ( 'NONE', ( #139 ) ) ;
#46 = SHAPE_DEFINITION_REPRESENTATION ( #5, #111 ) ;
#47 = FACE_BOUND ( 'NONE', #159, .T. ) ;
#48 = FACE_OUTER_BOUND ( 'NONE', #217, .T. ) ;
#49 = MANIFOLD_SOLID_BREP ( 'Corps-Déplacer/Copier1[2]', #98 ) ;
#50 = DIRECTION ( 'NONE',  ( 0.0000000000000000000, -1.000000000000000000, 0.0000000000000000000 ) ) ;
#51 = DIRECTION ( 'NONE',  ( -4.275831445896958607E-31, -1.000000000000000000, -1.224646799147353207E-16 ) ) ;
#52 = DIRECTION ( 'NONE',  ( 3.491481338843133355E-15, -1.227517819005651059E-16, 1.000000000000000000 ) ) ;
#53 = CARTESIAN_POINT ( 'NONE',  ( 2.756621864153849840E-14, -3.247126879542070426E-16, 7.895278813282239128 ) ) ;
#54 = CC_DESIGN_PERSON_AND_ORGANIZATION_ASSIGNMENT ( #168, #169, ( #11 ) ) ;
#55 = UNCERTAINTY_MEASURE_WITH_UNIT (LENGTH_MEASURE( 1.000000000000000082E-05 ), #7, 'distance_accuracy_value', 'NONE');
#56 = DATE_AND_TIME ( #105, #182 ) ;
#57 = CALENDAR_DATE ( 2021, 16, 11 ) ;
#58 = AXIS2_PLACEMENT_3D ( 'NONE', #14, #81, #93 ) ;
#59 = LOCAL_TIME ( 15, 59, 16.00000000000000000, #136 ) ;
#60 = APPROVAL ( #194, 'UNSPECIFIED' ) ;
#61 = EDGE_LOOP ( 'NONE', ( #44 ) ) ;
#62 = ORIENTED_EDGE ( 'NONE', *, *, #195, .T. ) ;
#63 = ADVANCED_FACE ( 'NONE', ( #28 ), #109, .F. ) ;
#64 = APPROVAL_ROLE ( '' ) ;
#65 = DIRECTION ( 'NONE',  ( -4.348155369072392588E-31, -1.000000000000000000, -1.227517819005651059E-16 ) ) ;
#66 = PLANE ( 'NONE',  #112 ) ;
#67 = DIRECTION ( 'NONE',  ( 3.491481338843133355E-15, -1.224646799147353207E-16, 1.000000000000000000 ) ) ;
#68 = CARTESIAN_POINT ( 'NONE',  ( 1.833027702892644696E-14, -6.444468549779667441E-16, 5.249999999999999112 ) ) ;
#69 = DIRECTION ( 'NONE',  ( -3.491481338843133355E-15, 1.224646799147353207E-16, -1.000000000000000000 ) ) ;
#70 = AXIS2_PLACEMENT_3D ( 'NONE', #145, #100, #32 ) ;
#71 = PERSON_AND_ORGANIZATION ( #142, #13 ) ;
#72 =( NAMED_UNIT ( * ) SI_UNIT ( $, .STERADIAN. ) SOLID_ANGLE_UNIT ( ) );
#73 = AXIS2_PLACEMENT_3D ( 'NONE', #53, #167, #133 ) ;
#74 = ADVANCED_FACE ( 'NONE', ( #200, #47 ), #43, .T. ) ;
#75 = DIRECTION ( 'NONE',  ( 0.0000000000000000000, 0.0000000000000000000, 1.000000000000000000 ) ) ;
#76 = CC_DESIGN_DATE_AND_TIME_ASSIGNMENT ( #121, #38, ( #94 ) ) ;
#77 = CALENDAR_DATE ( 2021, 16, 11 ) ;
#78 = EDGE_CURVE ( 'NONE', #184, #184, #219, .T. ) ;
#79 = EDGE_LOOP ( 'NONE', ( #42 ) ) ;
#80 = EDGE_LOOP ( 'NONE', ( #179 ) ) ;
#81 = DIRECTION ( 'NONE',  ( -3.491481338843133355E-15, 1.224646799147353207E-16, -1.000000000000000000 ) ) ;
#82 = CYLINDRICAL_SURFACE ( 'NONE', #153, 1.499999999999991784 ) ;
#83 = FACE_OUTER_BOUND ( 'NONE', #108, .T. ) ;
#84 = CC_DESIGN_PERSON_AND_ORGANIZATION_ASSIGNMENT ( #71, #135, ( #144 ) ) ;
#85 = DATE_AND_TIME ( #180, #3 ) ;
#86 = APPROVAL_PERSON_ORGANIZATION ( #137, #158, #10 ) ;
#87 = CYLINDRICAL_SURFACE ( 'NONE', #106, 1.049999999999999822 ) ;
#88 = CARTESIAN_POINT ( 'NONE',  ( 1.833027702892645012E-14, 1.124819836996384721E-32, 5.250000000000000000 ) ) ;
#89 = CC_DESIGN_PERSON_AND_ORGANIZATION_ASSIGNMENT ( #122, #192, ( #175 ) ) ;
#90 = APPROVAL_STATUS ( 'not_yet_approved' ) ;
#91 = COORDINATED_UNIVERSAL_TIME_OFFSET ( 1, 0, .AHEAD. ) ;
#92 = APPROVAL_DATE_TIME ( #56, #60 ) ;
#93 = DIRECTION ( 'NONE',  ( 4.275831445896958607E-31, 1.000000000000000000, 1.224646799147353207E-16 ) ) ;
#94 = SECURITY_CLASSIFICATION ( '', '', #24 ) ;
#95 = ADVANCED_FACE ( 'NONE', ( #96 ), #17, .F. ) ;
#96 = FACE_OUTER_BOUND ( 'NONE', #80, .T. ) ;
#97 = CARTESIAN_POINT ( 'NONE',  ( 1.326762908760390423E-13, 1.199999999999989297, 38.00000000000000000 ) ) ;
#98 = CLOSED_SHELL ( 'NONE', ( #173, #198, #120 ) ) ;
#99 = TOROIDAL_SURFACE ( 'NONE', #161, 9.049999999999998934, 8.000000000000000000 ) ;
#100 = DIRECTION ( 'NONE',  ( 3.491481338843133355E-15, -1.224646799147353207E-16, 1.000000000000000000 ) ) ;
#101 = FACE_OUTER_BOUND ( 'NONE', #61, .T. ) ;
#102 =( NAMED_UNIT ( * ) PLANE_ANGLE_UNIT ( ) SI_UNIT ( $, .RADIAN. ) );
#103 = APPROVAL_PERSON_ORGANIZATION ( #104, #176, #64 ) ;
#104 = PERSON_AND_ORGANIZATION ( #142, #13 ) ;
#105 = CALENDAR_DATE ( 2021, 16, 11 ) ;
#106 = AXIS2_PLACEMENT_3D ( 'NONE', #1, #52, #164 ) ;
#107 = ADVANCED_FACE ( 'NONE', ( #163, #48 ), #99, .F. ) ;
#108 = EDGE_LOOP ( 'NONE', ( #15 ) ) ;
#109 = PLANE ( 'NONE',  #58 ) ;
#110 = CARTESIAN_POINT ( 'NONE',  ( 1.326762908760390423E-13, -4.653657836759941941E-15, 38.00000000000000000 ) ) ;
#111 = ADVANCED_BREP_SHAPE_REPRESENTATION ( '964137', ( #189, #49, #205 ), #162 ) ;
#112 = AXIS2_PLACEMENT_3D ( 'NONE', #88, #187, #203 ) ;
#113 = CC_DESIGN_APPROVAL ( #158, ( #144 ) ) ;
#114 = VERTEX_POINT ( 'NONE', #223 ) ;
#115 = FACE_OUTER_BOUND ( 'NONE', #160, .T. ) ;
#116 = CARTESIAN_POINT ( 'NONE',  ( -4.500148336063433491E-31, -6.727682695115232473E-33, -1.288893709955932699E-16 ) ) ;
#117 = DIRECTION ( 'NONE',  ( -3.491481338843133355E-15, 1.224646799147353207E-16, -1.000000000000000000 ) ) ;
#118 = DIRECTION ( 'NONE',  ( 0.0000000000000000000, 1.000000000000000000, 0.0000000000000000000 ) ) ;
#119 = APPLICATION_PROTOCOL_DEFINITION ( 'international standard', 'config_control_design', 1994, #12 ) ;
#120 = ADVANCED_FACE ( 'NONE', ( #83 ), #183, .F. ) ;
#121 = DATE_AND_TIME ( #57, #59 ) ;
#122 = PERSON_AND_ORGANIZATION ( #142, #13 ) ;
#123 = EDGE_CURVE ( 'NONE', #188, #188, #30, .T. ) ;
#124 = CIRCLE ( 'NONE', #8, 1.499999999999993783 ) ;
#125 = EDGE_LOOP ( 'NONE', ( #62 ) ) ;
#126 = EDGE_CURVE ( 'NONE', #36, #36, #2, .T. ) ;
#127 = ORIENTED_EDGE ( 'NONE', *, *, #138, .T. ) ;
#128 = CIRCLE ( 'NONE', #34, 1.049999999999999600 ) ;
#129 = ORIENTED_EDGE ( 'NONE', *, *, #78, .F. ) ;
#130 = DIRECTION ( 'NONE',  ( 3.491481338843133355E-15, -1.227517819005651059E-16, 1.000000000000000000 ) ) ;
#131 = DIRECTION ( 'NONE',  ( 3.491481338843133355E-15, -1.227517819005651059E-16, 1.000000000000000000 ) ) ;
#132 = DIRECTION ( 'NONE',  ( 0.0000000000000000000, 1.000000000000000000, 0.0000000000000000000 ) ) ;
#133 = DIRECTION ( 'NONE',  ( 0.0000000000000000000, 1.000000000000000000, 0.0000000000000000000 ) ) ;
#134 = AXIS2_PLACEMENT_3D ( 'NONE', #110, #117, #132 ) ;
#135 = PERSON_AND_ORGANIZATION_ROLE ( 'creator' ) ;
#136 = COORDINATED_UNIVERSAL_TIME_OFFSET ( 1, 0, .AHEAD. ) ;
#137 = PERSON_AND_ORGANIZATION ( #142, #13 ) ;
#138 = EDGE_CURVE ( 'NONE', #114, #114, #178, .T. ) ;
#139 = ORIENTED_EDGE ( 'NONE', *, *, #149, .F. ) ;
#140 = AXIS2_PLACEMENT_3D ( 'NONE', #18, #67, #51 ) ;
#141 = LOCAL_TIME ( 15, 59, 16.00000000000000000, #191 ) ;
#142 = PERSON ( 'UNSPECIFIED', 'UNSPECIFIED', 'UNSPECIFIED', ('UNSPECIFIED'), ('UNSPECIFIED'), ('UNSPECIFIED') ) ;
#143 = ORIENTED_EDGE ( 'NONE', *, *, #78, .T. ) ;
#144 = PRODUCT_DEFINITION_FORMATION_WITH_SPECIFIED_SOURCE ( 'ANY', '', #175, .NOT_KNOWN. ) ;
#145 = CARTESIAN_POINT ( 'NONE',  ( 1.833027702892645012E-14, 1.124819836996384721E-32, 5.250000000000000000 ) ) ;
#146 = DIRECTION ( 'NONE',  ( 0.0000000000000000000, -1.000000000000000000, 0.0000000000000000000 ) ) ;
#147 = LOCAL_TIME ( 15, 59, 16.00000000000000000, #213 ) ;
#148 = CARTESIAN_POINT ( 'NONE',  ( 1.833027702892644696E-14, -1.050000000000000044, 5.249999999999999112 ) ) ;
#149 = EDGE_CURVE ( 'NONE', #170, #170, #124, .T. ) ;
#150 = DIRECTION ( 'NONE',  ( 4.275831445896958607E-31, 1.000000000000000000, 1.224646799147353207E-16 ) ) ;
#151 = FACE_OUTER_BOUND ( 'NONE', #79, .T. ) ;
#152 = CARTESIAN_POINT ( 'NONE',  ( 1.833027702892644696E-14, -1.050000000000000044, 5.249999999999999112 ) ) ;
#153 = AXIS2_PLACEMENT_3D ( 'NONE', #19, #69, #150 ) ;
#154 = PERSON_AND_ORGANIZATION ( #142, #13 ) ;
#155 = APPROVAL_STATUS ( 'not_yet_approved' ) ;
#156 = CALENDAR_DATE ( 2021, 16, 11 ) ;
#157 = APPROVAL_DATE_TIME ( #193, #158 ) ;
#158 = APPROVAL ( #90, 'UNSPECIFIED' ) ;
#159 = EDGE_LOOP ( 'NONE', ( #143 ) ) ;
#160 = EDGE_LOOP ( 'NONE', ( #29 ) ) ;
#161 = AXIS2_PLACEMENT_3D ( 'NONE', #202, #35, #65 ) ;
#162 =( GEOMETRIC_REPRESENTATION_CONTEXT ( 3 ) GLOBAL_UNCERTAINTY_ASSIGNED_CONTEXT ( ( #55 ) ) GLOBAL_UNIT_ASSIGNED_CONTEXT ( ( #7, #102, #72 ) ) REPRESENTATION_CONTEXT ( 'NONE', 'WORKASPACE' ) );
#163 = FACE_OUTER_BOUND ( 'NONE', #177, .T. ) ;
#164 = DIRECTION ( 'NONE',  ( -4.285855558155653280E-31, -1.000000000000000000, -1.227517819005650812E-16 ) ) ;
#165 = AXIS2_PLACEMENT_3D ( 'NONE', #68, #130, #146 ) ;
#166 = FACE_OUTER_BOUND ( 'NONE', #27, .T. ) ;
#167 = DIRECTION ( 'NONE',  ( -3.491481338843133355E-15, 1.227517819005651059E-16, -1.000000000000000000 ) ) ;
#168 = PERSON_AND_ORGANIZATION ( #142, #13 ) ;
#169 = PERSON_AND_ORGANIZATION_ROLE ( 'creator' ) ;
#170 = VERTEX_POINT ( 'NONE', #212 ) ;
#171 = AXIS2_PLACEMENT_3D ( 'NONE', #116, #16, #185 ) ;
#172 = APPROVAL_PERSON_ORGANIZATION ( #39, #60, #25 ) ;
#173 = ADVANCED_FACE ( 'NONE', ( #20 ), #66, .T. ) ;
#174 = EDGE_LOOP ( 'NONE', ( #129 ) ) ;
#175 = PRODUCT ( '964137', '964137', '', ( #37 ) ) ;
#176 = APPROVAL ( #155, 'UNSPECIFIED' ) ;
#177 = EDGE_LOOP ( 'NONE', ( #218 ) ) ;
#178 = CIRCLE ( 'NONE', #73, 1.499999999999991784 ) ;
#179 = ORIENTED_EDGE ( 'NONE', *, *, #123, .F. ) ;
#180 = CALENDAR_DATE ( 2021, 16, 11 ) ;
#181 = APPROVAL_DATE_TIME ( #85, #176 ) ;
#182 = LOCAL_TIME ( 15, 59, 16.00000000000000000, #91 ) ;
#183 = PLANE ( 'NONE',  #140 ) ;
#184 = VERTEX_POINT ( 'NONE', #97 ) ;
#185 = DIRECTION ( 'NONE',  ( -4.285855558155653280E-31, -1.000000000000000000, -1.227517819005650812E-16 ) ) ;
#186 = CLOSED_SHELL ( 'NONE', ( #207, #74, #63, #107, #95 ) ) ;
#187 = DIRECTION ( 'NONE',  ( 3.491481338843133355E-15, -1.224646799147353207E-16, 1.000000000000000000 ) ) ;
#188 = VERTEX_POINT ( 'NONE', #148 ) ;
#189 = MANIFOLD_SOLID_BREP ( 'Corps-Déplacer/Copier1[1]', #186 ) ;
#190 = CARTESIAN_POINT ( 'NONE',  ( 0.0000000000000000000, 0.0000000000000000000, 0.0000000000000000000 ) ) ;
#191 = COORDINATED_UNIVERSAL_TIME_OFFSET ( 1, 0, .AHEAD. ) ;
#192 = PERSON_AND_ORGANIZATION_ROLE ( 'design_owner' ) ;
#193 = DATE_AND_TIME ( #77, #147 ) ;
#194 = APPROVAL_STATUS ( 'not_yet_approved' ) ;
#195 = EDGE_CURVE ( 'NONE', #9, #9, #128, .T. ) ;
#196 = ORIENTED_EDGE ( 'NONE', *, *, #149, .T. ) ;
#197 = CC_DESIGN_PERSON_AND_ORGANIZATION_ASSIGNMENT ( #4, #208, ( #144 ) ) ;
#198 = ADVANCED_FACE ( 'NONE', ( #151, #115 ), #87, .T. ) ;
#199 = PRODUCT_RELATED_PRODUCT_CATEGORY ( 'detail', '', ( #175 ) ) ;
#200 = FACE_OUTER_BOUND ( 'NONE', #45, .T. ) ;
#201 = CARTESIAN_POINT ( 'NONE',  ( -9.000296672126868734E-31, -1.049999999999999822, -2.577787419911865892E-16 ) ) ;
#202 = CARTESIAN_POINT ( 'NONE',  ( 1.833027702892644696E-14, 0.0000000000000000000, 5.249999999999999112 ) ) ;
#203 = DIRECTION ( 'NONE',  ( -4.275831445896958607E-31, -1.000000000000000000, -1.224646799147353207E-16 ) ) ;
#204 = CARTESIAN_POINT ( 'NONE',  ( 1.833027702892644696E-14, -6.444468549779667441E-16, 5.249999999999999112 ) ) ;
#205 = AXIS2_PLACEMENT_3D ( 'NONE', #190, #75, #26 ) ;
#206 = DIRECTION ( 'NONE',  ( 0.0000000000000000000, 1.000000000000000000, 0.0000000000000000000 ) ) ;
#207 = ADVANCED_FACE ( 'NONE', ( #166, #101 ), #82, .T. ) ;
#208 = PERSON_AND_ORGANIZATION_ROLE ( 'design_supplier' ) ;
#209 = DESIGN_CONTEXT ( 'detailed design', #216, 'design' ) ;
#210 = APPLICATION_PROTOCOL_DEFINITION ( 'international standard', 'config_control_design', 1994, #216 ) ;
#211 = CC_DESIGN_APPROVAL ( #176, ( #94 ) ) ;
#212 = CARTESIAN_POINT ( 'NONE',  ( 1.316288464743861212E-13, 1.499999999999989120, 37.69999999999999574 ) ) ;
#213 = COORDINATED_UNIVERSAL_TIME_OFFSET ( 1, 0, .AHEAD. ) ;
#214 = COORDINATED_UNIVERSAL_TIME_OFFSET ( 1, 0, .AHEAD. ) ;
#215 = CC_DESIGN_APPROVAL ( #60, ( #11 ) ) ;
#216 = APPLICATION_CONTEXT ( 'configuration controlled 3d designs of mechanical parts and assemblies' ) ;
#217 = EDGE_LOOP ( 'NONE', ( #127 ) ) ;
#218 = ORIENTED_EDGE ( 'NONE', *, *, #123, .T. ) ;
#219 = CIRCLE ( 'NONE', #40, 1.199999999999993738 ) ;
#220 = CARTESIAN_POINT ( 'NONE',  ( 1.326762908760390423E-13, -4.653657836759941941E-15, 38.00000000000000000 ) ) ;
#221 = CARTESIAN_POINT ( 'NONE',  ( 1.316288464743861212E-13, -4.616918432785521081E-15, 37.69999999999999574 ) ) ;
#222 = CC_DESIGN_PERSON_AND_ORGANIZATION_ASSIGNMENT ( #154, #6, ( #94 ) ) ;
#223 = CARTESIAN_POINT ( 'NONE',  ( 2.756621864153849840E-14, 1.499999999999991562, 7.895278813282239128 ) ) ;
ENDSEC;
END-ISO-10303-21;
