ISO-10303-21;
HEADER;
FILE_DESCRIPTION (( 'STEP AP203' ),
    '1' );
FILE_NAME ('964136.step',
    '2021-11-16T14:59:15',
    ( '' ),
    ( '' ),
    'SwSTEP 2.0',
    'SolidWorks 2019',
    '' );
FILE_SCHEMA (( 'CONFIG_CONTROL_DESIGN' ));
ENDSEC;

DATA;
#1 = CARTESIAN_POINT ( 'NONE',  ( 1.658453635950487713E-14, -5.830709640276842159E-16, 4.749999999999999112 ) ) ;
#2 = CARTESIAN_POINT ( 'NONE',  ( -4.071562780247866937E-31, -8.234482691091623901E-33, -1.166141928055367446E-16 ) ) ;
#3 = ORIENTED_EDGE ( 'NONE', *, *, #157, .F. ) ;
#4 = CLOSED_SHELL ( 'NONE', ( #123, #62, #75, #173, #39 ) ) ;
#5 = EDGE_CURVE ( 'NONE', #191, #191, #91, .T. ) ;
#6 = MECHANICAL_CONTEXT ( 'NONE', #72, 'mechanical' ) ;
#7 = AXIS2_PLACEMENT_3D ( 'NONE', #32, #163, #69 ) ;
#8 = PERSON_AND_ORGANIZATION ( #156, #197 ) ;
#9 = ORIENTED_EDGE ( 'NONE', *, *, #133, .T. ) ;
#10 = DATE_TIME_ROLE ( 'creation_date' ) ;
#11 = LOCAL_TIME ( 15, 59, 15.00000000000000000, #214 ) ;
#12 = CC_DESIGN_PERSON_AND_ORGANIZATION_ASSIGNMENT ( #60, #64, ( #184 ) ) ;
#13 = ADVANCED_BREP_SHAPE_REPRESENTATION ( '964136', ( #124, #38, #207 ), #121 ) ;
#14 = DIRECTION ( 'NONE',  ( 4.275831445896958607E-31, 1.000000000000000000, 1.224646799147353207E-16 ) ) ;
#15 = CC_DESIGN_DATE_AND_TIME_ASSIGNMENT ( #196, #10, ( #87 ) ) ;
#16 = DIRECTION ( 'NONE',  ( -3.491481338843133355E-15, 1.227517819005651059E-16, -1.000000000000000000 ) ) ;
#17 = DIRECTION ( 'NONE',  ( 3.491481338843133355E-15, -1.227517819005651059E-16, 1.000000000000000000 ) ) ;
#18 = DIRECTION ( 'NONE',  ( 0.0000000000000000000, 1.000000000000000000, 0.0000000000000000000 ) ) ;
#19 = DIRECTION ( 'NONE',  ( -3.491481338843133355E-15, 1.224646799147353207E-16, -1.000000000000000000 ) ) ;
#20 = APPLICATION_CONTEXT ( 'configuration controlled 3d designs of mechanical parts and assemblies' ) ;
#21 = APPROVAL_STATUS ( 'not_yet_approved' ) ;
#22 = DIRECTION ( 'NONE',  ( 1.000000000000000000, 0.0000000000000000000, 0.0000000000000000000 ) ) ;
#23 = APPLICATION_PROTOCOL_DEFINITION ( 'international standard', 'config_control_design', 1994, #20 ) ;
#24 = APPROVAL_ROLE ( '' ) ;
#25 = APPROVAL ( #116, 'UNSPECIFIED' ) ;
#26 = CIRCLE ( 'NONE', #57, 1.199999999999993738 ) ;
#27 = PRODUCT ( '964136', '964136', '', ( #6 ) ) ;
#28 = EDGE_LOOP ( 'NONE', ( #142 ) ) ;
#29 = CALENDAR_DATE ( 2021, 16, 11 ) ;
#30 = DATE_TIME_ROLE ( 'classification_date' ) ;
#31 = DIRECTION ( 'NONE',  ( 3.491481338843133355E-15, -1.227517819005651059E-16, 1.000000000000000000 ) ) ;
#32 = CARTESIAN_POINT ( 'NONE',  ( -1.282754905350004587E-30, 4.499298539707956128E-32, -3.673956068672651857E-16 ) ) ;
#33 = FACE_BOUND ( 'NONE', #161, .T. ) ;
#34 = AXIS2_PLACEMENT_3D ( 'NONE', #189, #82, #118 ) ;
#35 = ORIENTED_EDGE ( 'NONE', *, *, #157, .T. ) ;
#36 = DIRECTION ( 'NONE',  ( -3.491481338843133355E-15, 1.224646799147353207E-16, -1.000000000000000000 ) ) ;
#37 = APPLICATION_PROTOCOL_DEFINITION ( 'international standard', 'config_control_design', 1994, #72 ) ;
#38 = MANIFOLD_SOLID_BREP ( 'Corps-Déplacer/Copier1[2]', #186 ) ;
#39 = ADVANCED_FACE ( 'NONE', ( #74 ), #178, .F. ) ;
#40 = CALENDAR_DATE ( 2021, 16, 11 ) ;
#41 = CARTESIAN_POINT ( 'NONE',  ( -8.143125560495735626E-31, -0.9499999999999995115, -2.332283856110735384E-16 ) ) ;
#42 =( NAMED_UNIT ( * ) SI_UNIT ( $, .STERADIAN. ) SOLID_ANGLE_UNIT ( ) );
#43 = PERSON_AND_ORGANIZATION ( #156, #197 ) ;
#44 = ORIENTED_EDGE ( 'NONE', *, *, #56, .F. ) ;
#45 = COORDINATED_UNIVERSAL_TIME_OFFSET ( 1, 0, .AHEAD. ) ;
#46 = AXIS2_PLACEMENT_3D ( 'NONE', #2, #144, #94 ) ;
#47 = PRODUCT_RELATED_PRODUCT_CATEGORY ( 'detail', '', ( #27 ) ) ;
#48 = DATE_AND_TIME ( #155, #172 ) ;
#49 = DIRECTION ( 'NONE',  ( 0.0000000000000000000, -1.000000000000000000, 0.0000000000000000000 ) ) ;
#50 = CARTESIAN_POINT ( 'NONE',  ( -6.413731847436034514E-31, 0.0000000000000000000, -1.836965810494968570E-16 ) ) ;
#51 = DIRECTION ( 'NONE',  ( 0.0000000000000000000, -1.000000000000000000, 0.0000000000000000000 ) ) ;
#52 = EDGE_CURVE ( 'NONE', #135, #135, #92, .T. ) ;
#53 = FACE_OUTER_BOUND ( 'NONE', #149, .T. ) ;
#54 = CARTESIAN_POINT ( 'NONE',  ( 1.316288464743861212E-13, 1.499999999999989120, 37.69999999999999574 ) ) ;
#55 = CARTESIAN_POINT ( 'NONE',  ( 1.658453635950487713E-14, -0.9500000000000005107, 4.749999999999999112 ) ) ;
#56 = EDGE_CURVE ( 'NONE', #76, #76, #201, .T. ) ;
#57 = AXIS2_PLACEMENT_3D ( 'NONE', #190, #36, #209 ) ;
#58 = CALENDAR_DATE ( 2021, 16, 11 ) ;
#59 = PERSON_AND_ORGANIZATION ( #156, #197 ) ;
#60 = PERSON_AND_ORGANIZATION ( #156, #197 ) ;
#61 = PERSON_AND_ORGANIZATION_ROLE ( 'design_supplier' ) ;
#62 = ADVANCED_FACE ( 'NONE', ( #177, #33 ), #205, .T. ) ;
#63 = AXIS2_PLACEMENT_3D ( 'NONE', #138, #120, #216 ) ;
#64 = PERSON_AND_ORGANIZATION_ROLE ( 'classification_officer' ) ;
#65 = ORIENTED_EDGE ( 'NONE', *, *, #133, .F. ) ;
#66 = AXIS2_PLACEMENT_3D ( 'NONE', #174, #113, #148 ) ;
#67 = ADVANCED_FACE ( 'NONE', ( #88, #68 ), #96, .T. ) ;
#68 = FACE_OUTER_BOUND ( 'NONE', #28, .T. ) ;
#69 = DIRECTION ( 'NONE',  ( -4.275831445896958607E-31, -1.000000000000000000, -1.224646799147353207E-16 ) ) ;
#70 = PLANE ( 'NONE',  #7 ) ;
#71 = APPROVAL ( #21, 'UNSPECIFIED' ) ;
#72 = APPLICATION_CONTEXT ( 'configuration controlled 3d designs of mechanical parts and assemblies' ) ;
#73 = CARTESIAN_POINT ( 'NONE',  ( 1.326762908760390423E-13, -4.653657836759941941E-15, 38.00000000000000000 ) ) ;
#74 = FACE_OUTER_BOUND ( 'NONE', #204, .T. ) ;
#75 = ADVANCED_FACE ( 'NONE', ( #175 ), #90, .F. ) ;
#76 = VERTEX_POINT ( 'NONE', #54 ) ;
#77 = DESIGN_CONTEXT ( 'detailed design', #20, 'design' ) ;
#78 = CIRCLE ( 'NONE', #111, 0.9499999999999999556 ) ;
#79 = PERSON_AND_ORGANIZATION_ROLE ( 'creator' ) ;
#80 = EDGE_LOOP ( 'NONE', ( #171 ) ) ;
#81 = PERSON_AND_ORGANIZATION ( #156, #197 ) ;
#82 = DIRECTION ( 'NONE',  ( 3.491481338843133355E-15, -1.227517819005651059E-16, 1.000000000000000000 ) ) ;
#83 = CC_DESIGN_APPROVAL ( #71, ( #126 ) ) ;
#84 = LOCAL_TIME ( 15, 59, 15.00000000000000000, #169 ) ;
#85 = PERSON_AND_ORGANIZATION_ROLE ( 'creator' ) ;
#86 = CC_DESIGN_APPROVAL ( #152, ( #184 ) ) ;
#87 = PRODUCT_DEFINITION ( 'UNKNOWN', '', #126, #77 ) ;
#88 = FACE_OUTER_BOUND ( 'NONE', #195, .T. ) ;
#89 = LOCAL_TIME ( 15, 59, 15.00000000000000000, #45 ) ;
#90 = PLANE ( 'NONE',  #66 ) ;
#91 = CIRCLE ( 'NONE', #122, 0.9499999999999999556 ) ;
#92 = CIRCLE ( 'NONE', #46, 0.9499999999999995115 ) ;
#93 = CC_DESIGN_DATE_AND_TIME_ASSIGNMENT ( #127, #30, ( #184 ) ) ;
#94 = DIRECTION ( 'NONE',  ( -4.285855558155653280E-31, -1.000000000000000000, -1.227517819005651059E-16 ) ) ;
#95 = DIRECTION ( 'NONE',  ( -4.275831445896958607E-31, -1.000000000000000000, -1.224646799147353207E-16 ) ) ;
#96 = CYLINDRICAL_SURFACE ( 'NONE', #134, 0.9499999999999996225 ) ;
#97 = COORDINATED_UNIVERSAL_TIME_OFFSET ( 1, 0, .AHEAD. ) ;
#98 = PERSON_AND_ORGANIZATION ( #156, #197 ) ;
#99 = CARTESIAN_POINT ( 'NONE',  ( 2.676236915341604106E-14, 1.499999999999991340, 7.665047169429660912 ) ) ;
#100 = CC_DESIGN_PERSON_AND_ORGANIZATION_ASSIGNMENT ( #217, #85, ( #126 ) ) ;
#101 = DIRECTION ( 'NONE',  ( 0.0000000000000000000, 0.0000000000000000000, 1.000000000000000000 ) ) ;
#102 = EDGE_LOOP ( 'NONE', ( #44 ) ) ;
#103 = AXIS2_PLACEMENT_3D ( 'NONE', #132, #188, #14 ) ;
#104 = CC_DESIGN_PERSON_AND_ORGANIZATION_ASSIGNMENT ( #8, #79, ( #87 ) ) ;
#105 = COORDINATED_UNIVERSAL_TIME_OFFSET ( 1, 0, .AHEAD. ) ;
#106 = APPROVAL_DATE_TIME ( #48, #71 ) ;
#107 = CALENDAR_DATE ( 2021, 16, 11 ) ;
#108 = CC_DESIGN_APPROVAL ( #25, ( #87 ) ) ;
#109 = SHAPE_DEFINITION_REPRESENTATION ( #158, #13 ) ;
#110 = CARTESIAN_POINT ( 'NONE',  ( 1.316288464743861212E-13, -4.616918432785521081E-15, 37.69999999999999574 ) ) ;
#111 = AXIS2_PLACEMENT_3D ( 'NONE', #1, #167, #49 ) ;
#112 = APPROVAL_PERSON_ORGANIZATION ( #59, #25, #194 ) ;
#113 = DIRECTION ( 'NONE',  ( -3.491481338843133355E-15, 1.224646799147353207E-16, -1.000000000000000000 ) ) ;
#114 = ORIENTED_EDGE ( 'NONE', *, *, #143, .T. ) ;
#115 = CYLINDRICAL_SURFACE ( 'NONE', #103, 1.499999999999991784 ) ;
#116 = APPROVAL_STATUS ( 'not_yet_approved' ) ;
#117 = CC_DESIGN_SECURITY_CLASSIFICATION ( #184, ( #126 ) ) ;
#118 = DIRECTION ( 'NONE',  ( -4.348522919579275296E-31, -1.000000000000000000, -1.227517819005651059E-16 ) ) ;
#119 = DATE_AND_TIME ( #40, #84 ) ;
#120 = DIRECTION ( 'NONE',  ( 3.491481338843133355E-15, -1.224646799147353207E-16, 1.000000000000000000 ) ) ;
#121 =( GEOMETRIC_REPRESENTATION_CONTEXT ( 3 ) GLOBAL_UNCERTAINTY_ASSIGNED_CONTEXT ( ( #193 ) ) GLOBAL_UNIT_ASSIGNED_CONTEXT ( ( #182, #151, #42 ) ) REPRESENTATION_CONTEXT ( 'NONE', 'WORKASPACE' ) );
#122 = AXIS2_PLACEMENT_3D ( 'NONE', #223, #17, #51 ) ;
#123 = ADVANCED_FACE ( 'NONE', ( #212, #53 ), #115, .T. ) ;
#124 = MANIFOLD_SOLID_BREP ( 'Corps-Déplacer/Copier1[1]', #4 ) ;
#125 = APPROVAL_ROLE ( '' ) ;
#126 = PRODUCT_DEFINITION_FORMATION_WITH_SPECIFIED_SOURCE ( 'ANY', '', #27, .NOT_KNOWN. ) ;
#127 = DATE_AND_TIME ( #107, #89 ) ;
#128 = CARTESIAN_POINT ( 'NONE',  ( 1.658453635950488028E-14, 1.124819836996384721E-32, 4.750000000000000000 ) ) ;
#129 = FACE_OUTER_BOUND ( 'NONE', #211, .T. ) ;
#130 = CARTESIAN_POINT ( 'NONE',  ( 2.676236915341604106E-14, -3.578272343716894896E-16, 7.665047169429660912 ) ) ;
#131 = FACE_OUTER_BOUND ( 'NONE', #154, .T. ) ;
#132 = CARTESIAN_POINT ( 'NONE',  ( 0.0000000000000000000, 0.0000000000000000000, 0.0000000000000000000 ) ) ;
#133 = EDGE_CURVE ( 'NONE', #180, #180, #162, .T. ) ;
#134 = AXIS2_PLACEMENT_3D ( 'NONE', #50, #31, #145 ) ;
#135 = VERTEX_POINT ( 'NONE', #41 ) ;
#136 = CC_DESIGN_PERSON_AND_ORGANIZATION_ASSIGNMENT ( #98, #170, ( #27 ) ) ;
#137 = ORIENTED_EDGE ( 'NONE', *, *, #5, .T. ) ;
#138 = CARTESIAN_POINT ( 'NONE',  ( 1.658453635950488028E-14, 1.124819836996384721E-32, 4.750000000000000000 ) ) ;
#139 = DATE_AND_TIME ( #29, #147 ) ;
#140 = EDGE_LOOP ( 'NONE', ( #35 ) ) ;
#141 = TOROIDAL_SURFACE ( 'NONE', #34, 8.949999999999999289, 8.000000000000000000 ) ;
#142 = ORIENTED_EDGE ( 'NONE', *, *, #5, .F. ) ;
#143 = EDGE_CURVE ( 'NONE', #192, #192, #26, .T. ) ;
#144 = DIRECTION ( 'NONE',  ( 3.491481338843133355E-15, -1.227517819005651059E-16, 1.000000000000000000 ) ) ;
#145 = DIRECTION ( 'NONE',  ( -4.285855558155653280E-31, -1.000000000000000000, -1.227517819005651552E-16 ) ) ;
#146 = FACE_OUTER_BOUND ( 'NONE', #140, .T. ) ;
#147 = LOCAL_TIME ( 15, 59, 15.00000000000000000, #105 ) ;
#148 = DIRECTION ( 'NONE',  ( 4.275831445896958607E-31, 1.000000000000000000, 1.224646799147353207E-16 ) ) ;
#149 = EDGE_LOOP ( 'NONE', ( #65 ) ) ;
#150 = CARTESIAN_POINT ( 'NONE',  ( 1.326762908760390423E-13, 1.199999999999989297, 38.00000000000000000 ) ) ;
#151 =( NAMED_UNIT ( * ) PLANE_ANGLE_UNIT ( ) SI_UNIT ( $, .RADIAN. ) );
#152 = APPROVAL ( #160, 'UNSPECIFIED' ) ;
#153 = CARTESIAN_POINT ( 'NONE',  ( 1.658453635950487713E-14, -0.9500000000000005107, 4.749999999999999112 ) ) ;
#154 = EDGE_LOOP ( 'NONE', ( #137 ) ) ;
#155 = CALENDAR_DATE ( 2021, 16, 11 ) ;
#156 = PERSON ( 'UNSPECIFIED', 'UNSPECIFIED', 'UNSPECIFIED', ('UNSPECIFIED'), ('UNSPECIFIED'), ('UNSPECIFIED') ) ;
#157 = EDGE_CURVE ( 'NONE', #168, #168, #78, .T. ) ;
#158 = PRODUCT_DEFINITION_SHAPE ( 'NONE', 'NONE',  #87 ) ;
#159 = ORIENTED_EDGE ( 'NONE', *, *, #52, .T. ) ;
#160 = APPROVAL_STATUS ( 'not_yet_approved' ) ;
#161 = EDGE_LOOP ( 'NONE', ( #114 ) ) ;
#162 = CIRCLE ( 'NONE', #222, 1.499999999999991784 ) ;
#163 = DIRECTION ( 'NONE',  ( 3.491481338843133355E-15, -1.224646799147353207E-16, 1.000000000000000000 ) ) ;
#164 = DIRECTION ( 'NONE',  ( -3.491481338843133355E-15, 1.224646799147353207E-16, -1.000000000000000000 ) ) ;
#165 = DIRECTION ( 'NONE',  ( 0.0000000000000000000, 1.000000000000000000, 0.0000000000000000000 ) ) ;
#166 = ADVANCED_FACE ( 'NONE', ( #129 ), #70, .F. ) ;
#167 = DIRECTION ( 'NONE',  ( 3.491481338843133355E-15, -1.227517819005651059E-16, 1.000000000000000000 ) ) ;
#168 = VERTEX_POINT ( 'NONE', #55 ) ;
#169 = COORDINATED_UNIVERSAL_TIME_OFFSET ( 1, 0, .AHEAD. ) ;
#170 = PERSON_AND_ORGANIZATION_ROLE ( 'design_owner' ) ;
#171 = ORIENTED_EDGE ( 'NONE', *, *, #143, .F. ) ;
#172 = LOCAL_TIME ( 15, 59, 15.00000000000000000, #97 ) ;
#173 = ADVANCED_FACE ( 'NONE', ( #146, #210 ), #141, .F. ) ;
#174 = CARTESIAN_POINT ( 'NONE',  ( 1.326762908760390423E-13, 8.998558695971030697E-33, 38.00000000000000000 ) ) ;
#175 = FACE_OUTER_BOUND ( 'NONE', #80, .T. ) ;
#176 = EDGE_LOOP ( 'NONE', ( #9 ) ) ;
#177 = FACE_OUTER_BOUND ( 'NONE', #102, .T. ) ;
#178 = PLANE ( 'NONE',  #208 ) ;
#179 = APPROVAL_PERSON_ORGANIZATION ( #81, #71, #24 ) ;
#180 = VERTEX_POINT ( 'NONE', #99 ) ;
#181 = APPROVAL_DATE_TIME ( #119, #25 ) ;
#182 =( LENGTH_UNIT ( ) NAMED_UNIT ( * ) SI_UNIT ( .MILLI., .METRE. ) );
#183 = PLANE ( 'NONE',  #63 ) ;
#184 = SECURITY_CLASSIFICATION ( '', '', #198 ) ;
#185 = CC_DESIGN_PERSON_AND_ORGANIZATION_ASSIGNMENT ( #43, #61, ( #126 ) ) ;
#186 = CLOSED_SHELL ( 'NONE', ( #218, #67, #166 ) ) ;
#187 = DIRECTION ( 'NONE',  ( 3.491481338843133355E-15, -1.224646799147353207E-16, 1.000000000000000000 ) ) ;
#188 = DIRECTION ( 'NONE',  ( -3.491481338843133355E-15, 1.224646799147353207E-16, -1.000000000000000000 ) ) ;
#189 = CARTESIAN_POINT ( 'NONE',  ( 1.658453635950487713E-14, 0.0000000000000000000, 4.749999999999999112 ) ) ;
#190 = CARTESIAN_POINT ( 'NONE',  ( 1.326762908760390423E-13, -4.653657836759941941E-15, 38.00000000000000000 ) ) ;
#191 = VERTEX_POINT ( 'NONE', #153 ) ;
#192 = VERTEX_POINT ( 'NONE', #150 ) ;
#193 = UNCERTAINTY_MEASURE_WITH_UNIT (LENGTH_MEASURE( 1.000000000000000082E-05 ), #182, 'distance_accuracy_value', 'NONE');
#194 = APPROVAL_ROLE ( '' ) ;
#195 = EDGE_LOOP ( 'NONE', ( #159 ) ) ;
#196 = DATE_AND_TIME ( #58, #11 ) ;
#197 = ORGANIZATION ( 'UNSPECIFIED', 'UNSPECIFIED', '' ) ;
#198 = SECURITY_CLASSIFICATION_LEVEL ( 'unclassified' ) ;
#199 = AXIS2_PLACEMENT_3D ( 'NONE', #110, #164, #165 ) ;
#200 = EDGE_LOOP ( 'NONE', ( #215 ) ) ;
#201 = CIRCLE ( 'NONE', #199, 1.499999999999993783 ) ;
#202 = PERSON_AND_ORGANIZATION ( #156, #197 ) ;
#203 = APPROVAL_DATE_TIME ( #139, #152 ) ;
#204 = EDGE_LOOP ( 'NONE', ( #3 ) ) ;
#205 = CONICAL_SURFACE ( 'NONE', #220, 1.199999999999993738, 0.7853981633974453924 ) ;
#206 = APPROVAL_PERSON_ORGANIZATION ( #202, #152, #125 ) ;
#207 = AXIS2_PLACEMENT_3D ( 'NONE', #213, #101, #22 ) ;
#208 = AXIS2_PLACEMENT_3D ( 'NONE', #128, #187, #95 ) ;
#209 = DIRECTION ( 'NONE',  ( 0.0000000000000000000, 1.000000000000000000, 0.0000000000000000000 ) ) ;
#210 = FACE_OUTER_BOUND ( 'NONE', #176, .T. ) ;
#211 = EDGE_LOOP ( 'NONE', ( #219 ) ) ;
#212 = FACE_OUTER_BOUND ( 'NONE', #200, .T. ) ;
#213 = CARTESIAN_POINT ( 'NONE',  ( 0.0000000000000000000, 0.0000000000000000000, 0.0000000000000000000 ) ) ;
#214 = COORDINATED_UNIVERSAL_TIME_OFFSET ( 1, 0, .AHEAD. ) ;
#215 = ORIENTED_EDGE ( 'NONE', *, *, #56, .T. ) ;
#216 = DIRECTION ( 'NONE',  ( -4.275831445896958607E-31, -1.000000000000000000, -1.224646799147353207E-16 ) ) ;
#217 = PERSON_AND_ORGANIZATION ( #156, #197 ) ;
#218 = ADVANCED_FACE ( 'NONE', ( #131 ), #183, .T. ) ;
#219 = ORIENTED_EDGE ( 'NONE', *, *, #52, .F. ) ;
#220 = AXIS2_PLACEMENT_3D ( 'NONE', #73, #19, #18 ) ;
#221 = DIRECTION ( 'NONE',  ( 0.0000000000000000000, 1.000000000000000000, 0.0000000000000000000 ) ) ;
#222 = AXIS2_PLACEMENT_3D ( 'NONE', #130, #16, #221 ) ;
#223 = CARTESIAN_POINT ( 'NONE',  ( 1.658453635950487713E-14, -5.830709640276842159E-16, 4.749999999999999112 ) ) ;
ENDSEC;
END-ISO-10303-21;
