ISO-10303-21;
HEADER;
FILE_DESCRIPTION (( 'STEP AP203' ),
    '1' );
FILE_NAME ('964135.step',
    '2021-11-16T14:59:15',
    ( '' ),
    ( '' ),
    'SwSTEP 2.0',
    'SolidWorks 2019',
    '' );
FILE_SCHEMA (( 'CONFIG_CONTROL_DESIGN' ));
ENDSEC;

DATA;
#1 = DATE_AND_TIME ( #184, #220 ) ;
#2 = EDGE_LOOP ( 'NONE', ( #84 ) ) ;
#3 = COORDINATED_UNIVERSAL_TIME_OFFSET ( 1, 0, .AHEAD. ) ;
#4 = APPLICATION_CONTEXT ( 'configuration controlled 3d designs of mechanical parts and assemblies' ) ;
#5 = CARTESIAN_POINT ( 'NONE',  ( 1.326762908760390423E-13, 8.998558695971030697E-33, 38.00000000000000000 ) ) ;
#6 = FACE_OUTER_BOUND ( 'NONE', #54, .T. ) ;
#7 = LOCAL_TIME ( 15, 59, 15.00000000000000000, #183 ) ;
#8 = CLOSED_SHELL ( 'NONE', ( #208, #138, #131 ) ) ;
#9 = DIRECTION ( 'NONE',  ( 3.491481338843133355E-15, -1.227517819005651059E-16, 1.000000000000000000 ) ) ;
#10 = CARTESIAN_POINT ( 'NONE',  ( -1.282754905350004587E-30, 4.499298539707956128E-32, -3.673956068672651857E-16 ) ) ;
#11 = CC_DESIGN_SECURITY_CLASSIFICATION ( #195, ( #174 ) ) ;
#12 = DIRECTION ( 'NONE',  ( 0.0000000000000000000, -1.000000000000000000, 0.0000000000000000000 ) ) ;
#13 = DIRECTION ( 'NONE',  ( -3.491481338843133355E-15, 1.224646799147353207E-16, -1.000000000000000000 ) ) ;
#14 = DIRECTION ( 'NONE',  ( 3.491481338843133355E-15, -1.227517819005651059E-16, 1.000000000000000000 ) ) ;
#15 = CARTESIAN_POINT ( 'NONE',  ( 1.316288464743861212E-13, -4.616918432785521081E-15, 37.69999999999999574 ) ) ;
#16 = PERSON_AND_ORGANIZATION_ROLE ( 'creator' ) ;
#17 = SECURITY_CLASSIFICATION_LEVEL ( 'unclassified' ) ;
#18 = CARTESIAN_POINT ( 'NONE',  ( 1.571166602479409694E-14, -5.523830185525428531E-16, 4.499999999999999112 ) ) ;
#19 = AXIS2_PLACEMENT_3D ( 'NONE', #158, #207, #69 ) ;
#20 = DATE_TIME_ROLE ( 'creation_date' ) ;
#21 = EDGE_LOOP ( 'NONE', ( #51 ) ) ;
#22 = PERSON_AND_ORGANIZATION ( #80, #57 ) ;
#23 = AXIS2_PLACEMENT_3D ( 'NONE', #76, #147, #215 ) ;
#24 = FACE_OUTER_BOUND ( 'NONE', #63, .T. ) ;
#25 = AXIS2_PLACEMENT_3D ( 'NONE', #98, #162, #12 ) ;
#26 = FACE_OUTER_BOUND ( 'NONE', #151, .T. ) ;
#27 = CARTESIAN_POINT ( 'NONE',  ( -3.857270002340083222E-31, -8.987882689079823035E-33, -1.104766037105084572E-16 ) ) ;
#28 = LOCAL_TIME ( 15, 59, 15.00000000000000000, #65 ) ;
#29 =( NAMED_UNIT ( * ) SI_UNIT ( $, .STERADIAN. ) SOLID_ANGLE_UNIT ( ) );
#30 = AXIS2_PLACEMENT_3D ( 'NONE', #5, #72, #144 ) ;
#31 = DIRECTION ( 'NONE',  ( -3.491481338843133355E-15, 1.224646799147353207E-16, -1.000000000000000000 ) ) ;
#32 = EDGE_CURVE ( 'NONE', #177, #177, #194, .T. ) ;
#33 = CC_DESIGN_APPROVAL ( #43, ( #174 ) ) ;
#34 = PERSON_AND_ORGANIZATION ( #80, #57 ) ;
#35 = CALENDAR_DATE ( 2021, 16, 11 ) ;
#36 = APPROVAL_STATUS ( 'not_yet_approved' ) ;
#37 = CC_DESIGN_APPROVAL ( #188, ( #195 ) ) ;
#38 = PERSON_AND_ORGANIZATION ( #80, #57 ) ;
#39 = MANIFOLD_SOLID_BREP ( 'Corps-Déplacer/Copier1[1]', #71 ) ;
#40 = COORDINATED_UNIVERSAL_TIME_OFFSET ( 1, 0, .AHEAD. ) ;
#41 = MANIFOLD_SOLID_BREP ( 'Corps-Déplacer/Copier1[2]', #8 ) ;
#42 = APPLICATION_CONTEXT ( 'configuration controlled 3d designs of mechanical parts and assemblies' ) ;
#43 = APPROVAL ( #85, 'UNSPECIFIED' ) ;
#44 = CARTESIAN_POINT ( 'NONE',  ( 1.326762908760390423E-13, -4.653657836759941941E-15, 38.00000000000000000 ) ) ;
#45 = AXIS2_PLACEMENT_3D ( 'NONE', #148, #193, #74 ) ;
#46 = FACE_OUTER_BOUND ( 'NONE', #21, .T. ) ;
#47 = DIRECTION ( 'NONE',  ( 4.275831445896958607E-31, 1.000000000000000000, 1.224646799147353207E-16 ) ) ;
#48 = CONICAL_SURFACE ( 'NONE', #221, 1.199999999999993738, 0.7853981633974453924 ) ;
#49 = FACE_OUTER_BOUND ( 'NONE', #202, .T. ) ;
#50 = PERSON_AND_ORGANIZATION ( #80, #57 ) ;
#51 = ORIENTED_EDGE ( 'NONE', *, *, #166, .F. ) ;
#52 = PERSON_AND_ORGANIZATION_ROLE ( 'creator' ) ;
#53 = COORDINATED_UNIVERSAL_TIME_OFFSET ( 1, 0, .AHEAD. ) ;
#54 = EDGE_LOOP ( 'NONE', ( #108 ) ) ;
#55 = ORIENTED_EDGE ( 'NONE', *, *, #32, .F. ) ;
#56 = DIRECTION ( 'NONE',  ( -4.275831445896958607E-31, -1.000000000000000000, -1.224646799147353207E-16 ) ) ;
#57 = ORGANIZATION ( 'UNSPECIFIED', 'UNSPECIFIED', '' ) ;
#58 = AXIS2_PLACEMENT_3D ( 'NONE', #27, #9, #128 ) ;
#59 = ADVANCED_BREP_SHAPE_REPRESENTATION ( '964135', ( #39, #41, #23 ), #190 ) ;
#60 =( LENGTH_UNIT ( ) NAMED_UNIT ( * ) SI_UNIT ( .MILLI., .METRE. ) );
#61 = FACE_OUTER_BOUND ( 'NONE', #189, .T. ) ;
#62 = CARTESIAN_POINT ( 'NONE',  ( 1.571166602479409694E-14, 0.0000000000000000000, 4.499999999999999112 ) ) ;
#63 = EDGE_LOOP ( 'NONE', ( #140 ) ) ;
#64 = DATE_AND_TIME ( #35, #7 ) ;
#65 = COORDINATED_UNIVERSAL_TIME_OFFSET ( 1, 0, .AHEAD. ) ;
#66 = APPROVAL_DATE_TIME ( #170, #188 ) ;
#67 = EDGE_CURVE ( 'NONE', #175, #175, #133, .T. ) ;
#68 = ADVANCED_FACE ( 'NONE', ( #46, #159 ), #48, .T. ) ;
#69 = DIRECTION ( 'NONE',  ( -4.285855558155654155E-31, -1.000000000000000000, -1.227517819005650812E-16 ) ) ;
#70 = CIRCLE ( 'NONE', #45, 1.499999999999991784 ) ;
#71 = CLOSED_SHELL ( 'NONE', ( #196, #68, #126, #141, #82 ) ) ;
#72 = DIRECTION ( 'NONE',  ( -3.491481338843133355E-15, 1.224646799147353207E-16, -1.000000000000000000 ) ) ;
#73 = CC_DESIGN_APPROVAL ( #211, ( #77 ) ) ;
#74 = DIRECTION ( 'NONE',  ( 0.0000000000000000000, 1.000000000000000000, 0.0000000000000000000 ) ) ;
#75 = PRODUCT_RELATED_PRODUCT_CATEGORY ( 'detail', '', ( #206 ) ) ;
#76 = CARTESIAN_POINT ( 'NONE',  ( 0.0000000000000000000, 0.0000000000000000000, 0.0000000000000000000 ) ) ;
#77 = PRODUCT_DEFINITION ( 'UNKNOWN', '', #174, #87 ) ;
#78 = DIRECTION ( 'NONE',  ( 0.0000000000000000000, 1.000000000000000000, 0.0000000000000000000 ) ) ;
#79 = CARTESIAN_POINT ( 'NONE',  ( 1.326762908760390423E-13, 1.199999999999989297, 38.00000000000000000 ) ) ;
#80 = PERSON ( 'UNSPECIFIED', 'UNSPECIFIED', 'UNSPECIFIED', ('UNSPECIFIED'), ('UNSPECIFIED'), ('UNSPECIFIED') ) ;
#81 = MECHANICAL_CONTEXT ( 'NONE', #42, 'mechanical' ) ;
#82 = ADVANCED_FACE ( 'NONE', ( #110 ), #109, .F. ) ;
#83 = ORIENTED_EDGE ( 'NONE', *, *, #92, .F. ) ;
#84 = ORIENTED_EDGE ( 'NONE', *, *, #67, .F. ) ;
#85 = APPROVAL_STATUS ( 'not_yet_approved' ) ;
#86 = DIRECTION ( 'NONE',  ( -3.491481338843133355E-15, 1.224646799147353207E-16, -1.000000000000000000 ) ) ;
#87 = DESIGN_CONTEXT ( 'detailed design', #4, 'design' ) ;
#88 = PERSON_AND_ORGANIZATION ( #80, #57 ) ;
#89 = DIRECTION ( 'NONE',  ( 0.0000000000000000000, 1.000000000000000000, 0.0000000000000000000 ) ) ;
#90 = CIRCLE ( 'NONE', #102, 1.499999999999993783 ) ;
#91 = AXIS2_PLACEMENT_3D ( 'NONE', #112, #172, #160 ) ;
#92 = EDGE_CURVE ( 'NONE', #116, #116, #127, .T. ) ;
#93 = FACE_OUTER_BOUND ( 'NONE', #125, .T. ) ;
#94 = CARTESIAN_POINT ( 'NONE',  ( -7.714540004680168196E-31, -0.8999999999999993561, -2.209532074210169638E-16 ) ) ;
#95 = APPROVAL_PERSON_ORGANIZATION ( #50, #211, #201 ) ;
#96 = CC_DESIGN_PERSON_AND_ORGANIZATION_ASSIGNMENT ( #88, #136, ( #174 ) ) ;
#97 = CARTESIAN_POINT ( 'NONE',  ( 2.632485044422658983E-14, 1.499999999999991340, 7.539736830714111271 ) ) ;
#98 = CARTESIAN_POINT ( 'NONE',  ( 1.571166602479409694E-14, -5.523830185525428531E-16, 4.499999999999999112 ) ) ;
#99 = VERTEX_POINT ( 'NONE', #97 ) ;
#100 = CALENDAR_DATE ( 2021, 16, 11 ) ;
#101 = CARTESIAN_POINT ( 'NONE',  ( 1.326762908760390423E-13, -4.653657836759941941E-15, 38.00000000000000000 ) ) ;
#102 = AXIS2_PLACEMENT_3D ( 'NONE', #15, #13, #78 ) ;
#103 = APPLICATION_PROTOCOL_DEFINITION ( 'international standard', 'config_control_design', 1994, #4 ) ;
#104 = ORIENTED_EDGE ( 'NONE', *, *, #166, .T. ) ;
#105 = PERSON_AND_ORGANIZATION ( #80, #57 ) ;
#106 = SHAPE_DEFINITION_REPRESENTATION ( #191, #59 ) ;
#107 = LOCAL_TIME ( 15, 59, 15.00000000000000000, #40 ) ;
#108 = ORIENTED_EDGE ( 'NONE', *, *, #92, .T. ) ;
#109 = PLANE ( 'NONE',  #91 ) ;
#110 = FACE_OUTER_BOUND ( 'NONE', #2, .T. ) ;
#111 = CC_DESIGN_DATE_AND_TIME_ASSIGNMENT ( #1, #20, ( #77 ) ) ;
#112 = CARTESIAN_POINT ( 'NONE',  ( 1.571166602479410010E-14, 1.124819836996384721E-32, 4.500000000000000000 ) ) ;
#113 = CARTESIAN_POINT ( 'NONE',  ( 1.571166602479410010E-14, 1.124819836996384721E-32, 4.500000000000000000 ) ) ;
#114 = CARTESIAN_POINT ( 'NONE',  ( 1.571166602479409694E-14, -0.9000000000000007994, 4.499999999999999112 ) ) ;
#115 = TOROIDAL_SURFACE ( 'NONE', #143, 8.900000000000000355, 8.000000000000000000 ) ;
#116 = VERTEX_POINT ( 'NONE', #94 ) ;
#117 = DIRECTION ( 'NONE',  ( -4.275831445896958607E-31, -1.000000000000000000, -1.224646799147353207E-16 ) ) ;
#118 = CALENDAR_DATE ( 2021, 16, 11 ) ;
#119 = EDGE_LOOP ( 'NONE', ( #197 ) ) ;
#120 = PERSON_AND_ORGANIZATION_ROLE ( 'design_owner' ) ;
#121 = APPROVAL_PERSON_ORGANIZATION ( #123, #43, #122 ) ;
#122 = APPROVAL_ROLE ( '' ) ;
#123 = PERSON_AND_ORGANIZATION ( #80, #57 ) ;
#124 = ORIENTED_EDGE ( 'NONE', *, *, #181, .T. ) ;
#125 = EDGE_LOOP ( 'NONE', ( #83 ) ) ;
#126 = ADVANCED_FACE ( 'NONE', ( #26 ), #173, .F. ) ;
#127 = CIRCLE ( 'NONE', #58, 0.8999999999999993561 ) ;
#128 = DIRECTION ( 'NONE',  ( -4.285855558155653280E-31, -1.000000000000000000, -1.227517819005651059E-16 ) ) ;
#129 = CYLINDRICAL_SURFACE ( 'NONE', #19, 0.8999999999999998002 ) ;
#130 = VERTEX_POINT ( 'NONE', #150 ) ;
#131 = ADVANCED_FACE ( 'NONE', ( #93 ), #210, .F. ) ;
#132 = CARTESIAN_POINT ( 'NONE',  ( 0.0000000000000000000, 0.0000000000000000000, 0.0000000000000000000 ) ) ;
#133 = CIRCLE ( 'NONE', #218, 0.9000000000000003553 ) ;
#134 = FACE_OUTER_BOUND ( 'NONE', #205, .T. ) ;
#135 = CC_DESIGN_PERSON_AND_ORGANIZATION_ASSIGNMENT ( #38, #16, ( #174 ) ) ;
#136 = PERSON_AND_ORGANIZATION_ROLE ( 'design_supplier' ) ;
#137 = ORIENTED_EDGE ( 'NONE', *, *, #185, .F. ) ;
#138 = ADVANCED_FACE ( 'NONE', ( #6, #212 ), #129, .T. ) ;
#139 = CALENDAR_DATE ( 2021, 16, 11 ) ;
#140 = ORIENTED_EDGE ( 'NONE', *, *, #185, .T. ) ;
#141 = ADVANCED_FACE ( 'NONE', ( #142, #24 ), #115, .F. ) ;
#142 = FACE_OUTER_BOUND ( 'NONE', #182, .T. ) ;
#143 = AXIS2_PLACEMENT_3D ( 'NONE', #62, #14, #179 ) ;
#144 = DIRECTION ( 'NONE',  ( 4.275831445896958607E-31, 1.000000000000000000, 1.224646799147353207E-16 ) ) ;
#145 = DIRECTION ( 'NONE',  ( 3.491481338843133355E-15, -1.224646799147353207E-16, 1.000000000000000000 ) ) ;
#146 = CARTESIAN_POINT ( 'NONE',  ( 1.316288464743861212E-13, 1.499999999999989120, 37.69999999999999574 ) ) ;
#147 = DIRECTION ( 'NONE',  ( 0.0000000000000000000, 0.0000000000000000000, 1.000000000000000000 ) ) ;
#148 = CARTESIAN_POINT ( 'NONE',  ( 2.632485044422658983E-14, -3.731331124789337086E-16, 7.539736830714111271 ) ) ;
#149 = CIRCLE ( 'NONE', #25, 0.9000000000000003553 ) ;
#150 = CARTESIAN_POINT ( 'NONE',  ( 1.571166602479409694E-14, -0.9000000000000007994, 4.499999999999999112 ) ) ;
#151 = EDGE_LOOP ( 'NONE', ( #55 ) ) ;
#152 = AXIS2_PLACEMENT_3D ( 'NONE', #113, #219, #117 ) ;
#153 = DIRECTION ( 'NONE',  ( 3.491481338843133355E-15, -1.227517819005651059E-16, 1.000000000000000000 ) ) ;
#154 = APPROVAL_DATE_TIME ( #64, #43 ) ;
#155 = DIRECTION ( 'NONE',  ( 0.0000000000000000000, -1.000000000000000000, 0.0000000000000000000 ) ) ;
#156 = APPROVAL_STATUS ( 'not_yet_approved' ) ;
#157 = APPROVAL_ROLE ( '' ) ;
#158 = CARTESIAN_POINT ( 'NONE',  ( -6.413731847436034514E-31, 0.0000000000000000000, -1.836965810494968570E-16 ) ) ;
#159 = FACE_BOUND ( 'NONE', #222, .T. ) ;
#160 = DIRECTION ( 'NONE',  ( -4.275831445896958607E-31, -1.000000000000000000, -1.224646799147353207E-16 ) ) ;
#161 = AXIS2_PLACEMENT_3D ( 'NONE', #132, #31, #47 ) ;
#162 = DIRECTION ( 'NONE',  ( 3.491481338843133355E-15, -1.227517819005651059E-16, 1.000000000000000000 ) ) ;
#163 = APPLICATION_PROTOCOL_DEFINITION ( 'international standard', 'config_control_design', 1994, #42 ) ;
#164 = VERTEX_POINT ( 'NONE', #146 ) ;
#165 = PERSON_AND_ORGANIZATION_ROLE ( 'classification_officer' ) ;
#166 = EDGE_CURVE ( 'NONE', #164, #164, #90, .T. ) ;
#167 = DIRECTION ( 'NONE',  ( 0.0000000000000000000, 1.000000000000000000, 0.0000000000000000000 ) ) ;
#168 = LOCAL_TIME ( 15, 59, 15.00000000000000000, #3 ) ;
#169 = APPROVAL_DATE_TIME ( #200, #211 ) ;
#170 = DATE_AND_TIME ( #118, #28 ) ;
#171 = CC_DESIGN_PERSON_AND_ORGANIZATION_ASSIGNMENT ( #34, #52, ( #77 ) ) ;
#172 = DIRECTION ( 'NONE',  ( 3.491481338843133355E-15, -1.224646799147353207E-16, 1.000000000000000000 ) ) ;
#173 = PLANE ( 'NONE',  #30 ) ;
#174 = PRODUCT_DEFINITION_FORMATION_WITH_SPECIFIED_SOURCE ( 'ANY', '', #206, .NOT_KNOWN. ) ;
#175 = VERTEX_POINT ( 'NONE', #114 ) ;
#176 = AXIS2_PLACEMENT_3D ( 'NONE', #10, #145, #56 ) ;
#177 = VERTEX_POINT ( 'NONE', #79 ) ;
#178 = CC_DESIGN_DATE_AND_TIME_ASSIGNMENT ( #203, #198, ( #195 ) ) ;
#179 = DIRECTION ( 'NONE',  ( -4.348708325974019258E-31, -1.000000000000000000, -1.227517819005651059E-16 ) ) ;
#180 =( NAMED_UNIT ( * ) PLANE_ANGLE_UNIT ( ) SI_UNIT ( $, .RADIAN. ) );
#181 = EDGE_CURVE ( 'NONE', #130, #130, #149, .T. ) ;
#182 = EDGE_LOOP ( 'NONE', ( #187 ) ) ;
#183 = COORDINATED_UNIVERSAL_TIME_OFFSET ( 1, 0, .AHEAD. ) ;
#184 = CALENDAR_DATE ( 2021, 16, 11 ) ;
#185 = EDGE_CURVE ( 'NONE', #99, #99, #70, .T. ) ;
#186 = PERSON_AND_ORGANIZATION ( #80, #57 ) ;
#187 = ORIENTED_EDGE ( 'NONE', *, *, #67, .T. ) ;
#188 = APPROVAL ( #36, 'UNSPECIFIED' ) ;
#189 = EDGE_LOOP ( 'NONE', ( #124 ) ) ;
#190 =( GEOMETRIC_REPRESENTATION_CONTEXT ( 3 ) GLOBAL_UNCERTAINTY_ASSIGNED_CONTEXT ( ( #204 ) ) GLOBAL_UNIT_ASSIGNED_CONTEXT ( ( #60, #180, #29 ) ) REPRESENTATION_CONTEXT ( 'NONE', 'WORKASPACE' ) );
#191 = PRODUCT_DEFINITION_SHAPE ( 'NONE', 'NONE',  #77 ) ;
#192 = DIRECTION ( 'NONE',  ( -3.491481338843133355E-15, 1.224646799147353207E-16, -1.000000000000000000 ) ) ;
#193 = DIRECTION ( 'NONE',  ( -3.491481338843133355E-15, 1.227517819005651059E-16, -1.000000000000000000 ) ) ;
#194 = CIRCLE ( 'NONE', #209, 1.199999999999993738 ) ;
#195 = SECURITY_CLASSIFICATION ( '', '', #17 ) ;
#196 = ADVANCED_FACE ( 'NONE', ( #134, #49 ), #213, .T. ) ;
#197 = ORIENTED_EDGE ( 'NONE', *, *, #181, .F. ) ;
#198 = DATE_TIME_ROLE ( 'classification_date' ) ;
#199 = ORIENTED_EDGE ( 'NONE', *, *, #32, .T. ) ;
#200 = DATE_AND_TIME ( #139, #107 ) ;
#201 = APPROVAL_ROLE ( '' ) ;
#202 = EDGE_LOOP ( 'NONE', ( #137 ) ) ;
#203 = DATE_AND_TIME ( #100, #168 ) ;
#204 = UNCERTAINTY_MEASURE_WITH_UNIT (LENGTH_MEASURE( 1.000000000000000082E-05 ), #60, 'distance_accuracy_value', 'NONE');
#205 = EDGE_LOOP ( 'NONE', ( #104 ) ) ;
#206 = PRODUCT ( '964135', '964135', '', ( #81 ) ) ;
#207 = DIRECTION ( 'NONE',  ( 3.491481338843133355E-15, -1.227517819005651059E-16, 1.000000000000000000 ) ) ;
#208 = ADVANCED_FACE ( 'NONE', ( #61 ), #217, .T. ) ;
#209 = AXIS2_PLACEMENT_3D ( 'NONE', #101, #86, #167 ) ;
#210 = PLANE ( 'NONE',  #176 ) ;
#211 = APPROVAL ( #156, 'UNSPECIFIED' ) ;
#212 = FACE_OUTER_BOUND ( 'NONE', #119, .T. ) ;
#213 = CYLINDRICAL_SURFACE ( 'NONE', #161, 1.499999999999991784 ) ;
#214 = CC_DESIGN_PERSON_AND_ORGANIZATION_ASSIGNMENT ( #186, #120, ( #206 ) ) ;
#215 = DIRECTION ( 'NONE',  ( 1.000000000000000000, 0.0000000000000000000, 0.0000000000000000000 ) ) ;
#216 = APPROVAL_PERSON_ORGANIZATION ( #105, #188, #157 ) ;
#217 = PLANE ( 'NONE',  #152 ) ;
#218 = AXIS2_PLACEMENT_3D ( 'NONE', #18, #153, #155 ) ;
#219 = DIRECTION ( 'NONE',  ( 3.491481338843133355E-15, -1.224646799147353207E-16, 1.000000000000000000 ) ) ;
#220 = LOCAL_TIME ( 15, 59, 15.00000000000000000, #53 ) ;
#221 = AXIS2_PLACEMENT_3D ( 'NONE', #44, #192, #89 ) ;
#222 = EDGE_LOOP ( 'NONE', ( #199 ) ) ;
#223 = CC_DESIGN_PERSON_AND_ORGANIZATION_ASSIGNMENT ( #22, #165, ( #195 ) ) ;
ENDSEC;
END-ISO-10303-21;
