ISO-10303-21;
HEADER;
FILE_DESCRIPTION (( 'STEP AP203' ),
    '1' );
FILE_NAME ('964134.step',
    '2021-11-16T14:59:14',
    ( '' ),
    ( '' ),
    'SwSTEP 2.0',
    'SolidWorks 2019',
    '' );
FILE_SCHEMA (( 'CONFIG_CONTROL_DESIGN' ));
ENDSEC;

DATA;
#1 = APPROVAL_STATUS ( 'not_yet_approved' ) ;
#2 = DIRECTION ( 'NONE',  ( 0.0000000000000000000, 1.000000000000000000, 0.0000000000000000000 ) ) ;
#3 = APPROVAL ( #1, 'UNSPECIFIED' ) ;
#4 = DIRECTION ( 'NONE',  ( -3.491481338843133355E-15, 1.224646799147353207E-16, -1.000000000000000000 ) ) ;
#5 = CC_DESIGN_APPROVAL ( #16, ( #178 ) ) ;
#6 = FACE_OUTER_BOUND ( 'NONE', #135, .T. ) ;
#7 = DIRECTION ( 'NONE',  ( 3.491481338843133355E-15, -1.224646799147353207E-16, 1.000000000000000000 ) ) ;
#8 = VERTEX_POINT ( 'NONE', #213 ) ;
#9 =( NAMED_UNIT ( * ) PLANE_ANGLE_UNIT ( ) SI_UNIT ( $, .RADIAN. ) );
#10 = CLOSED_SHELL ( 'NONE', ( #153, #208, #214 ) ) ;
#11 = EDGE_CURVE ( 'NONE', #8, #8, #198, .T. ) ;
#12 = AXIS2_PLACEMENT_3D ( 'NONE', #86, #186, #167 ) ;
#13 = CC_DESIGN_APPROVAL ( #87, ( #199 ) ) ;
#14 = PERSON_AND_ORGANIZATION_ROLE ( 'creator' ) ;
#15 = ORIENTED_EDGE ( 'NONE', *, *, #11, .F. ) ;
#16 = APPROVAL ( #206, 'UNSPECIFIED' ) ;
#17 = PERSON_AND_ORGANIZATION ( #125, #195 ) ;
#18 = AXIS2_PLACEMENT_3D ( 'NONE', #39, #209, #166 ) ;
#19 = EDGE_LOOP ( 'NONE', ( #117 ) ) ;
#20 = PERSON_AND_ORGANIZATION_ROLE ( 'design_supplier' ) ;
#21 = CARTESIAN_POINT ( 'NONE',  ( 1.326762908760390423E-13, -4.653657836759941941E-15, 38.00000000000000000 ) ) ;
#22 = EDGE_CURVE ( 'NONE', #123, #123, #138, .T. ) ;
#23 = CYLINDRICAL_SURFACE ( 'NONE', #12, 1.499999999999991784 ) ;
#24 = DIRECTION ( 'NONE',  ( 4.275831445896958607E-31, 1.000000000000000000, 1.224646799147353207E-16 ) ) ;
#25 = FACE_OUTER_BOUND ( 'NONE', #101, .T. ) ;
#26 = DIRECTION ( 'NONE',  ( 3.491481338843133355E-15, -1.227517819005651059E-16, 1.000000000000000000 ) ) ;
#27 = VERTEX_POINT ( 'NONE', #65 ) ;
#28 = CIRCLE ( 'NONE', #18, 0.8500000000000006439 ) ;
#29 = DATE_TIME_ROLE ( 'classification_date' ) ;
#30 = LOCAL_TIME ( 15, 59, 14.00000000000000000, #128 ) ;
#31 = ADVANCED_BREP_SHAPE_REPRESENTATION ( '964134', ( #129, #58, #113 ), #212 ) ;
#32 = AXIS2_PLACEMENT_3D ( 'NONE', #69, #157, #44 ) ;
#33 = APPROVAL_DATE_TIME ( #134, #87 ) ;
#34 = CALENDAR_DATE ( 2021, 16, 11 ) ;
#35 = EDGE_LOOP ( 'NONE', ( #164 ) ) ;
#36 = ORIENTED_EDGE ( 'NONE', *, *, #187, .T. ) ;
#37 = SECURITY_CLASSIFICATION_LEVEL ( 'unclassified' ) ;
#38 = LOCAL_TIME ( 15, 59, 14.00000000000000000, #114 ) ;
#39 = CARTESIAN_POINT ( 'NONE',  ( 1.483879569008331360E-14, -5.216950730774016876E-16, 4.249999999999999112 ) ) ;
#40 = DIRECTION ( 'NONE',  ( 3.491481338843133355E-15, -1.224646799147353207E-16, 1.000000000000000000 ) ) ;
#41 = FACE_OUTER_BOUND ( 'NONE', #219, .T. ) ;
#42 = CC_DESIGN_PERSON_AND_ORGANIZATION_ASSIGNMENT ( #17, #148, ( #92 ) ) ;
#43 = FACE_OUTER_BOUND ( 'NONE', #19, .T. ) ;
#44 = DIRECTION ( 'NONE',  ( -4.285855558155652404E-31, -1.000000000000000000, -1.227517819005650812E-16 ) ) ;
#45 = CC_DESIGN_PERSON_AND_ORGANIZATION_ASSIGNMENT ( #181, #14, ( #178 ) ) ;
#46 = AXIS2_PLACEMENT_3D ( 'NONE', #170, #4, #192 ) ;
#47 = PERSON_AND_ORGANIZATION ( #125, #195 ) ;
#48 = APPROVAL_ROLE ( '' ) ;
#49 = CALENDAR_DATE ( 2021, 16, 11 ) ;
#50 = DIRECTION ( 'NONE',  ( 0.0000000000000000000, 1.000000000000000000, 0.0000000000000000000 ) ) ;
#51 = FACE_OUTER_BOUND ( 'NONE', #76, .T. ) ;
#52 = DIRECTION ( 'NONE',  ( -4.275831445896958607E-31, -1.000000000000000000, -1.224646799147353207E-16 ) ) ;
#53 = CC_DESIGN_PERSON_AND_ORGANIZATION_ASSIGNMENT ( #163, #217, ( #197 ) ) ;
#54 = PLANE ( 'NONE',  #143 ) ;
#55 = CC_DESIGN_SECURITY_CLASSIFICATION ( #92, ( #178 ) ) ;
#56 = CARTESIAN_POINT ( 'NONE',  ( 1.316288464743861212E-13, 1.499999999999989120, 37.69999999999999574 ) ) ;
#57 = PLANE ( 'NONE',  #73 ) ;
#58 = MANIFOLD_SOLID_BREP ( 'Corps-Déplacer/Copier1[2]', #10 ) ;
#59 = AXIS2_PLACEMENT_3D ( 'NONE', #83, #207, #158 ) ;
#60 = PERSON_AND_ORGANIZATION_ROLE ( 'creator' ) ;
#61 = CALENDAR_DATE ( 2021, 16, 11 ) ;
#62 = ORIENTED_EDGE ( 'NONE', *, *, #22, .F. ) ;
#63 = CLOSED_SHELL ( 'NONE', ( #71, #136, #111, #215, #95 ) ) ;
#64 = EDGE_LOOP ( 'NONE', ( #185 ) ) ;
#65 = CARTESIAN_POINT ( 'NONE',  ( 1.483879569008331360E-14, -0.8500000000000011990, 4.249999999999999112 ) ) ;
#66 = FACE_OUTER_BOUND ( 'NONE', #98, .T. ) ;
#67 = CARTESIAN_POINT ( 'NONE',  ( -1.282754905350004587E-30, 4.499298539707956128E-32, -3.673956068672651857E-16 ) ) ;
#68 = DIRECTION ( 'NONE',  ( -4.275831445896958607E-31, -1.000000000000000000, -1.224646799147353207E-16 ) ) ;
#69 = CARTESIAN_POINT ( 'NONE',  ( -6.413731847436034514E-31, 0.0000000000000000000, -1.836965810494968570E-16 ) ) ;
#70 = LOCAL_TIME ( 15, 59, 14.00000000000000000, #218 ) ;
#71 = ADVANCED_FACE ( 'NONE', ( #25, #6 ), #23, .T. ) ;
#72 =( NAMED_UNIT ( * ) SI_UNIT ( $, .STERADIAN. ) SOLID_ANGLE_UNIT ( ) );
#73 = AXIS2_PLACEMENT_3D ( 'NONE', #121, #140, #24 ) ;
#74 = APPLICATION_CONTEXT ( 'configuration controlled 3d designs of mechanical parts and assemblies' ) ;
#75 = PERSON_AND_ORGANIZATION ( #125, #195 ) ;
#76 = EDGE_LOOP ( 'NONE', ( #131 ) ) ;
#77 = DIRECTION ( 'NONE',  ( 1.000000000000000000, 0.0000000000000000000, 0.0000000000000000000 ) ) ;
#78 = PRODUCT_DEFINITION_SHAPE ( 'NONE', 'NONE',  #199 ) ;
#79 = LOCAL_TIME ( 15, 59, 14.00000000000000000, #222 ) ;
#80 = DIRECTION ( 'NONE',  ( 0.0000000000000000000, 0.0000000000000000000, 1.000000000000000000 ) ) ;
#81 = ORIENTED_EDGE ( 'NONE', *, *, #177, .F. ) ;
#82 = EDGE_LOOP ( 'NONE', ( #116 ) ) ;
#83 = CARTESIAN_POINT ( 'NONE',  ( 1.483879569008331360E-14, -5.216950730774016876E-16, 4.249999999999999112 ) ) ;
#84 = DIRECTION ( 'NONE',  ( -4.275831445896958607E-31, -1.000000000000000000, -1.224646799147353207E-16 ) ) ;
#85 = UNCERTAINTY_MEASURE_WITH_UNIT (LENGTH_MEASURE( 1.000000000000000082E-05 ), #194, 'distance_accuracy_value', 'NONE');
#86 = CARTESIAN_POINT ( 'NONE',  ( 0.0000000000000000000, 0.0000000000000000000, 0.0000000000000000000 ) ) ;
#87 = APPROVAL ( #152, 'UNSPECIFIED' ) ;
#88 = DIRECTION ( 'NONE',  ( 3.491481338843133355E-15, -1.224646799147353207E-16, 1.000000000000000000 ) ) ;
#89 = DIRECTION ( 'NONE',  ( -4.285855558155653280E-31, -1.000000000000000000, -1.227517819005651059E-16 ) ) ;
#90 = CIRCLE ( 'NONE', #59, 0.8500000000000006439 ) ;
#91 = VERTEX_POINT ( 'NONE', #56 ) ;
#92 = SECURITY_CLASSIFICATION ( '', '', #37 ) ;
#93 = DATE_AND_TIME ( #49, #38 ) ;
#94 = AXIS2_PLACEMENT_3D ( 'NONE', #171, #26, #107 ) ;
#95 = ADVANCED_FACE ( 'NONE', ( #160 ), #54, .F. ) ;
#96 = APPROVAL_PERSON_ORGANIZATION ( #220, #16, #150 ) ;
#97 = COORDINATED_UNIVERSAL_TIME_OFFSET ( 1, 0, .AHEAD. ) ;
#98 = EDGE_LOOP ( 'NONE', ( #15 ) ) ;
#99 = EDGE_LOOP ( 'NONE', ( #62 ) ) ;
#100 = APPROVAL_PERSON_ORGANIZATION ( #202, #3, #48 ) ;
#101 = EDGE_LOOP ( 'NONE', ( #36 ) ) ;
#102 = FACE_BOUND ( 'NONE', #64, .T. ) ;
#103 = CC_DESIGN_PERSON_AND_ORGANIZATION_ASSIGNMENT ( #133, #60, ( #199 ) ) ;
#104 = DIRECTION ( 'NONE',  ( -3.491481338843133355E-15, 1.227517819005651059E-16, -1.000000000000000000 ) ) ;
#105 = DIRECTION ( 'NONE',  ( -3.491481338843133355E-15, 1.224646799147353207E-16, -1.000000000000000000 ) ) ;
#106 = PLANE ( 'NONE',  #204 ) ;
#107 = DIRECTION ( 'NONE',  ( -4.348894832703450587E-31, -1.000000000000000000, -1.227517819005651059E-16 ) ) ;
#108 = CARTESIAN_POINT ( 'NONE',  ( 1.483879569008331360E-14, -0.8500000000000011990, 4.249999999999999112 ) ) ;
#109 = CIRCLE ( 'NONE', #46, 1.499999999999993783 ) ;
#110 = CALENDAR_DATE ( 2021, 16, 11 ) ;
#111 = ADVANCED_FACE ( 'NONE', ( #66 ), #57, .F. ) ;
#112 = MECHANICAL_CONTEXT ( 'NONE', #200, 'mechanical' ) ;
#113 = AXIS2_PLACEMENT_3D ( 'NONE', #147, #80, #77 ) ;
#114 = COORDINATED_UNIVERSAL_TIME_OFFSET ( 1, 0, .AHEAD. ) ;
#115 = APPLICATION_PROTOCOL_DEFINITION ( 'international standard', 'config_control_design', 1994, #74 ) ;
#116 = ORIENTED_EDGE ( 'NONE', *, *, #142, .T. ) ;
#117 = ORIENTED_EDGE ( 'NONE', *, *, #179, .T. ) ;
#118 = DIRECTION ( 'NONE',  ( 3.491481338843133355E-15, -1.227517819005651059E-16, 1.000000000000000000 ) ) ;
#119 = VERTEX_POINT ( 'NONE', #108 ) ;
#120 = FACE_OUTER_BOUND ( 'NONE', #99, .T. ) ;
#121 = CARTESIAN_POINT ( 'NONE',  ( 1.326762908760390423E-13, 8.998558695971030697E-33, 38.00000000000000000 ) ) ;
#122 = AXIS2_PLACEMENT_3D ( 'NONE', #21, #154, #2 ) ;
#123 = VERTEX_POINT ( 'NONE', #173 ) ;
#124 = AXIS2_PLACEMENT_3D ( 'NONE', #127, #118, #89 ) ;
#125 = PERSON ( 'UNSPECIFIED', 'UNSPECIFIED', 'UNSPECIFIED', ('UNSPECIFIED'), ('UNSPECIFIED'), ('UNSPECIFIED') ) ;
#126 = CIRCLE ( 'NONE', #132, 1.499999999999991784 ) ;
#127 = CARTESIAN_POINT ( 'NONE',  ( -3.642977224432300383E-31, -9.741282687068020802E-33, -1.043390146154801945E-16 ) ) ;
#128 = COORDINATED_UNIVERSAL_TIME_OFFSET ( 1, 0, .AHEAD. ) ;
#129 = MANIFOLD_SOLID_BREP ( 'Corps-Déplacer/Copier1[1]', #63 ) ;
#130 = DATE_AND_TIME ( #61, #70 ) ;
#131 = ORIENTED_EDGE ( 'NONE', *, *, #22, .T. ) ;
#132 = AXIS2_PLACEMENT_3D ( 'NONE', #188, #104, #155 ) ;
#133 = PERSON_AND_ORGANIZATION ( #125, #195 ) ;
#134 = DATE_AND_TIME ( #180, #79 ) ;
#135 = EDGE_LOOP ( 'NONE', ( #182 ) ) ;
#136 = ADVANCED_FACE ( 'NONE', ( #139, #102 ), #191, .T. ) ;
#137 = CARTESIAN_POINT ( 'NONE',  ( 1.326762908760390423E-13, -4.653657836759941941E-15, 38.00000000000000000 ) ) ;
#138 = CIRCLE ( 'NONE', #124, 0.8499999999999992006 ) ;
#139 = FACE_OUTER_BOUND ( 'NONE', #35, .T. ) ;
#140 = DIRECTION ( 'NONE',  ( -3.491481338843133355E-15, 1.224646799147353207E-16, -1.000000000000000000 ) ) ;
#141 = CARTESIAN_POINT ( 'NONE',  ( 1.483879569008331676E-14, 1.124819836996384858E-32, 4.250000000000000000 ) ) ;
#142 = EDGE_CURVE ( 'NONE', #27, #27, #28, .T. ) ;
#143 = AXIS2_PLACEMENT_3D ( 'NONE', #144, #40, #52 ) ;
#144 = CARTESIAN_POINT ( 'NONE',  ( 1.483879569008331676E-14, 1.124819836996384858E-32, 4.250000000000000000 ) ) ;
#145 = PRODUCT_RELATED_PRODUCT_CATEGORY ( 'detail', '', ( #197 ) ) ;
#146 = CARTESIAN_POINT ( 'NONE',  ( 2.586740097140780477E-14, 1.499999999999991340, 7.408718094417397815 ) ) ;
#147 = CARTESIAN_POINT ( 'NONE',  ( 0.0000000000000000000, 0.0000000000000000000, 0.0000000000000000000 ) ) ;
#148 = PERSON_AND_ORGANIZATION_ROLE ( 'classification_officer' ) ;
#149 = EDGE_LOOP ( 'NONE', ( #81 ) ) ;
#150 = APPROVAL_ROLE ( '' ) ;
#151 = CC_DESIGN_APPROVAL ( #3, ( #92 ) ) ;
#152 = APPROVAL_STATUS ( 'not_yet_approved' ) ;
#153 = ADVANCED_FACE ( 'NONE', ( #210 ), #106, .T. ) ;
#154 = DIRECTION ( 'NONE',  ( -3.491481338843133355E-15, 1.224646799147353207E-16, -1.000000000000000000 ) ) ;
#155 = DIRECTION ( 'NONE',  ( 0.0000000000000000000, 1.000000000000000000, 0.0000000000000000000 ) ) ;
#156 = PLANE ( 'NONE',  #221 ) ;
#157 = DIRECTION ( 'NONE',  ( 3.491481338843133355E-15, -1.227517819005651059E-16, 1.000000000000000000 ) ) ;
#158 = DIRECTION ( 'NONE',  ( 0.0000000000000000000, -1.000000000000000000, 0.0000000000000000000 ) ) ;
#159 = VERTEX_POINT ( 'NONE', #146 ) ;
#160 = FACE_OUTER_BOUND ( 'NONE', #149, .T. ) ;
#161 = APPROVAL_DATE_TIME ( #205, #16 ) ;
#162 = EDGE_LOOP ( 'NONE', ( #223 ) ) ;
#163 = PERSON_AND_ORGANIZATION ( #125, #195 ) ;
#164 = ORIENTED_EDGE ( 'NONE', *, *, #187, .F. ) ;
#165 = APPROVAL_ROLE ( '' ) ;
#166 = DIRECTION ( 'NONE',  ( 0.0000000000000000000, -1.000000000000000000, 0.0000000000000000000 ) ) ;
#167 = DIRECTION ( 'NONE',  ( 4.275831445896958607E-31, 1.000000000000000000, 1.224646799147353207E-16 ) ) ;
#168 = CC_DESIGN_DATE_AND_TIME_ASSIGNMENT ( #184, #201, ( #199 ) ) ;
#169 = AXIS2_PLACEMENT_3D ( 'NONE', #137, #105, #50 ) ;
#170 = CARTESIAN_POINT ( 'NONE',  ( 1.316288464743861212E-13, -4.616918432785521081E-15, 37.69999999999999574 ) ) ;
#171 = CARTESIAN_POINT ( 'NONE',  ( 1.483879569008331360E-14, 0.0000000000000000000, 4.249999999999999112 ) ) ;
#172 = CC_DESIGN_DATE_AND_TIME_ASSIGNMENT ( #130, #29, ( #92 ) ) ;
#173 = CARTESIAN_POINT ( 'NONE',  ( -7.285954448864602518E-31, -0.8499999999999992006, -2.086780292309604137E-16 ) ) ;
#174 = APPLICATION_PROTOCOL_DEFINITION ( 'international standard', 'config_control_design', 1994, #200 ) ;
#175 = TOROIDAL_SURFACE ( 'NONE', #94, 8.849999999999999645, 8.000000000000000000 ) ;
#176 = APPROVAL_DATE_TIME ( #93, #3 ) ;
#177 = EDGE_CURVE ( 'NONE', #119, #119, #90, .T. ) ;
#178 = PRODUCT_DEFINITION_FORMATION_WITH_SPECIFIED_SOURCE ( 'ANY', '', #197, .NOT_KNOWN. ) ;
#179 = EDGE_CURVE ( 'NONE', #159, #159, #126, .T. ) ;
#180 = CALENDAR_DATE ( 2021, 16, 11 ) ;
#181 = PERSON_AND_ORGANIZATION ( #125, #195 ) ;
#182 = ORIENTED_EDGE ( 'NONE', *, *, #179, .F. ) ;
#183 = SHAPE_DEFINITION_REPRESENTATION ( #78, #31 ) ;
#184 = DATE_AND_TIME ( #34, #30 ) ;
#185 = ORIENTED_EDGE ( 'NONE', *, *, #11, .T. ) ;
#186 = DIRECTION ( 'NONE',  ( -3.491481338843133355E-15, 1.224646799147353207E-16, -1.000000000000000000 ) ) ;
#187 = EDGE_CURVE ( 'NONE', #91, #91, #109, .T. ) ;
#188 = CARTESIAN_POINT ( 'NONE',  ( 2.586740097140780477E-14, -3.877382746112930098E-16, 7.408718094417397815 ) ) ;
#189 = DESIGN_CONTEXT ( 'detailed design', #74, 'design' ) ;
#190 = LOCAL_TIME ( 15, 59, 14.00000000000000000, #97 ) ;
#191 = CONICAL_SURFACE ( 'NONE', #169, 1.199999999999993738, 0.7853981633974453924 ) ;
#192 = DIRECTION ( 'NONE',  ( 0.0000000000000000000, 1.000000000000000000, 0.0000000000000000000 ) ) ;
#193 = CYLINDRICAL_SURFACE ( 'NONE', #32, 0.8499999999999998668 ) ;
#194 =( LENGTH_UNIT ( ) NAMED_UNIT ( * ) SI_UNIT ( .MILLI., .METRE. ) );
#195 = ORGANIZATION ( 'UNSPECIFIED', 'UNSPECIFIED', '' ) ;
#196 = CC_DESIGN_PERSON_AND_ORGANIZATION_ASSIGNMENT ( #75, #20, ( #178 ) ) ;
#197 = PRODUCT ( '964134', '964134', '', ( #112 ) ) ;
#198 = CIRCLE ( 'NONE', #122, 1.199999999999993738 ) ;
#199 = PRODUCT_DEFINITION ( 'UNKNOWN', '', #178, #189 ) ;
#200 = APPLICATION_CONTEXT ( 'configuration controlled 3d designs of mechanical parts and assemblies' ) ;
#201 = DATE_TIME_ROLE ( 'creation_date' ) ;
#202 = PERSON_AND_ORGANIZATION ( #125, #195 ) ;
#203 = ORIENTED_EDGE ( 'NONE', *, *, #142, .F. ) ;
#204 = AXIS2_PLACEMENT_3D ( 'NONE', #141, #88, #84 ) ;
#205 = DATE_AND_TIME ( #110, #190 ) ;
#206 = APPROVAL_STATUS ( 'not_yet_approved' ) ;
#207 = DIRECTION ( 'NONE',  ( 3.491481338843133355E-15, -1.227517819005651059E-16, 1.000000000000000000 ) ) ;
#208 = ADVANCED_FACE ( 'NONE', ( #51, #41 ), #193, .T. ) ;
#209 = DIRECTION ( 'NONE',  ( 3.491481338843133355E-15, -1.227517819005651059E-16, 1.000000000000000000 ) ) ;
#210 = FACE_OUTER_BOUND ( 'NONE', #82, .T. ) ;
#211 = FACE_OUTER_BOUND ( 'NONE', #162, .T. ) ;
#212 =( GEOMETRIC_REPRESENTATION_CONTEXT ( 3 ) GLOBAL_UNCERTAINTY_ASSIGNED_CONTEXT ( ( #85 ) ) GLOBAL_UNIT_ASSIGNED_CONTEXT ( ( #194, #9, #72 ) ) REPRESENTATION_CONTEXT ( 'NONE', 'WORKASPACE' ) );
#213 = CARTESIAN_POINT ( 'NONE',  ( 1.326762908760390423E-13, 1.199999999999989297, 38.00000000000000000 ) ) ;
#214 = ADVANCED_FACE ( 'NONE', ( #120 ), #156, .F. ) ;
#215 = ADVANCED_FACE ( 'NONE', ( #211, #43 ), #175, .F. ) ;
#216 = APPROVAL_PERSON_ORGANIZATION ( #47, #87, #165 ) ;
#217 = PERSON_AND_ORGANIZATION_ROLE ( 'design_owner' ) ;
#218 = COORDINATED_UNIVERSAL_TIME_OFFSET ( 1, 0, .AHEAD. ) ;
#219 = EDGE_LOOP ( 'NONE', ( #203 ) ) ;
#220 = PERSON_AND_ORGANIZATION ( #125, #195 ) ;
#221 = AXIS2_PLACEMENT_3D ( 'NONE', #67, #7, #68 ) ;
#222 = COORDINATED_UNIVERSAL_TIME_OFFSET ( 1, 0, .AHEAD. ) ;
#223 = ORIENTED_EDGE ( 'NONE', *, *, #177, .T. ) ;
ENDSEC;
END-ISO-10303-21;
