ISO-10303-21;
HEADER;
FILE_DESCRIPTION (( 'STEP AP203' ),
    '1' );
FILE_NAME ('964133.step',
    '2021-11-16T14:59:13',
    ( '' ),
    ( '' ),
    'SwSTEP 2.0',
    'SolidWorks 2019',
    '' );
FILE_SCHEMA (( 'CONFIG_CONTROL_DESIGN' ));
ENDSEC;

DATA;
#1 = DIRECTION ( 'NONE',  ( 0.0000000000000000000, 1.000000000000000000, 0.0000000000000000000 ) ) ;
#2 = ADVANCED_FACE ( 'NONE', ( #55, #108 ), #121, .T. ) ;
#3 = SECURITY_CLASSIFICATION ( '', '', #137 ) ;
#4 = APPROVAL_STATUS ( 'not_yet_approved' ) ;
#5 = EDGE_LOOP ( 'NONE', ( #139 ) ) ;
#6 = CARTESIAN_POINT ( 'NONE',  ( 0.0000000000000000000, 0.0000000000000000000, 0.0000000000000000000 ) ) ;
#7 = AXIS2_PLACEMENT_3D ( 'NONE', #63, #126, #91 ) ;
#8 = ORIENTED_EDGE ( 'NONE', *, *, #40, .T. ) ;
#9 = LOCAL_TIME ( 15, 59, 13.00000000000000000, #204 ) ;
#10 = EDGE_LOOP ( 'NONE', ( #70 ) ) ;
#11 = APPROVAL ( #4, 'UNSPECIFIED' ) ;
#12 = APPLICATION_CONTEXT ( 'configuration controlled 3d designs of mechanical parts and assemblies' ) ;
#13 = DIRECTION ( 'NONE',  ( 0.0000000000000000000, 1.000000000000000000, 0.0000000000000000000 ) ) ;
#14 = PRODUCT_DEFINITION ( 'UNKNOWN', '', #71, #50 ) ;
#15 = AXIS2_PLACEMENT_3D ( 'NONE', #82, #16, #31 ) ;
#16 = DIRECTION ( 'NONE',  ( 3.491481338843133355E-15, -1.224646799147353207E-16, 1.000000000000000000 ) ) ;
#17 = EDGE_CURVE ( 'NONE', #149, #149, #205, .T. ) ;
#18 = CARTESIAN_POINT ( 'NONE',  ( -1.282754905350004587E-30, 4.499298539707956128E-32, -3.673956068672651857E-16 ) ) ;
#19 = DIRECTION ( 'NONE',  ( -3.491481338843133355E-15, 1.224646799147353207E-16, -1.000000000000000000 ) ) ;
#20 = DIRECTION ( 'NONE',  ( 0.0000000000000000000, 1.000000000000000000, 0.0000000000000000000 ) ) ;
#21 = ADVANCED_FACE ( 'NONE', ( #130, #203 ), #136, .T. ) ;
#22 = APPLICATION_PROTOCOL_DEFINITION ( 'international standard', 'config_control_design', 1994, #12 ) ;
#23 = EDGE_LOOP ( 'NONE', ( #103 ) ) ;
#24 = CALENDAR_DATE ( 2021, 16, 11 ) ;
#25 = CIRCLE ( 'NONE', #196, 1.199999999999993738 ) ;
#26 = CALENDAR_DATE ( 2021, 16, 11 ) ;
#27 = DIRECTION ( 'NONE',  ( -4.285855558155653280E-31, -1.000000000000000000, -1.227517819005650812E-16 ) ) ;
#28 = PLANE ( 'NONE',  #182 ) ;
#29 = CARTESIAN_POINT ( 'NONE',  ( 1.396592535537253027E-14, -0.7999999999999997113, 3.999999999999999112 ) ) ;
#30 = DIRECTION ( 'NONE',  ( -3.491481338843133355E-15, 1.227517819005651059E-16, -1.000000000000000000 ) ) ;
#31 = DIRECTION ( 'NONE',  ( -4.275831445896958607E-31, -1.000000000000000000, -1.224646799147353207E-16 ) ) ;
#32 = DIRECTION ( 'NONE',  ( -3.491481338843133355E-15, 1.224646799147353207E-16, -1.000000000000000000 ) ) ;
#33 = DATE_AND_TIME ( #193, #9 ) ;
#34 = UNCERTAINTY_MEASURE_WITH_UNIT (LENGTH_MEASURE( 1.000000000000000082E-05 ), #119, 'distance_accuracy_value', 'NONE');
#35 = PERSON_AND_ORGANIZATION ( #123, #60 ) ;
#36 = EDGE_CURVE ( 'NONE', #44, #44, #66, .T. ) ;
#37 = VERTEX_POINT ( 'NONE', #155 ) ;
#38 = CALENDAR_DATE ( 2021, 16, 11 ) ;
#39 = SHAPE_DEFINITION_REPRESENTATION ( #129, #215 ) ;
#40 = EDGE_CURVE ( 'NONE', #163, #163, #176, .T. ) ;
#41 = ORIENTED_EDGE ( 'NONE', *, *, #17, .F. ) ;
#42 = APPROVAL_PERSON_ORGANIZATION ( #138, #165, #105 ) ;
#43 = EDGE_LOOP ( 'NONE', ( #41 ) ) ;
#44 = VERTEX_POINT ( 'NONE', #29 ) ;
#45 = CARTESIAN_POINT ( 'NONE',  ( 1.316288464743861212E-13, -4.616918432785521081E-15, 37.69999999999999574 ) ) ;
#46 = CYLINDRICAL_SURFACE ( 'NONE', #106, 1.499999999999991784 ) ;
#47 = CARTESIAN_POINT ( 'NONE',  ( -3.428684446524518858E-31, -1.049468268505621036E-32, -9.820142552045196883E-17 ) ) ;
#48 = DIRECTION ( 'NONE',  ( 3.491481338843133355E-15, -1.224646799147353207E-16, 1.000000000000000000 ) ) ;
#49 = APPROVAL_PERSON_ORGANIZATION ( #133, #11, #169 ) ;
#50 = DESIGN_CONTEXT ( 'detailed design', #12, 'design' ) ;
#51 = DATE_AND_TIME ( #24, #171 ) ;
#52 = PERSON_AND_ORGANIZATION ( #123, #60 ) ;
#53 = ADVANCED_FACE ( 'NONE', ( #200 ), #114, .T. ) ;
#54 = MANIFOLD_SOLID_BREP ( 'Corps-Déplacer/Copier1[1]', #161 ) ;
#55 = FACE_OUTER_BOUND ( 'NONE', #141, .T. ) ;
#56 = PERSON_AND_ORGANIZATION_ROLE ( 'classification_officer' ) ;
#57 = DATE_TIME_ROLE ( 'classification_date' ) ;
#58 = ORIENTED_EDGE ( 'NONE', *, *, #202, .T. ) ;
#59 = AXIS2_PLACEMENT_3D ( 'NONE', #65, #186, #13 ) ;
#60 = ORGANIZATION ( 'UNSPECIFIED', 'UNSPECIFIED', '' ) ;
#61 = PRODUCT ( '964133', '964133', '', ( #84 ) ) ;
#62 = FACE_OUTER_BOUND ( 'NONE', #172, .T. ) ;
#63 = CARTESIAN_POINT ( 'NONE',  ( 1.396592535537253027E-14, -4.910071276022603248E-16, 3.999999999999999112 ) ) ;
#64 = DIRECTION ( 'NONE',  ( 3.491481338843133355E-15, -1.227517819005651059E-16, 1.000000000000000000 ) ) ;
#65 = CARTESIAN_POINT ( 'NONE',  ( 1.326762908760390423E-13, -4.653657836759941941E-15, 38.00000000000000000 ) ) ;
#66 = CIRCLE ( 'NONE', #7, 0.7999999999999991562 ) ;
#67 = DIRECTION ( 'NONE',  ( 1.000000000000000000, 0.0000000000000000000, 0.0000000000000000000 ) ) ;
#68 = PERSON_AND_ORGANIZATION ( #123, #60 ) ;
#69 = APPROVAL_DATE_TIME ( #86, #11 ) ;
#70 = ORIENTED_EDGE ( 'NONE', *, *, #40, .F. ) ;
#71 = PRODUCT_DEFINITION_FORMATION_WITH_SPECIFIED_SOURCE ( 'ANY', '', #61, .NOT_KNOWN. ) ;
#72 = ADVANCED_FACE ( 'NONE', ( #219, #166 ), #217, .F. ) ;
#73 = VERTEX_POINT ( 'NONE', #173 ) ;
#74 = ORIENTED_EDGE ( 'NONE', *, *, #216, .T. ) ;
#75 = EDGE_LOOP ( 'NONE', ( #76 ) ) ;
#76 = ORIENTED_EDGE ( 'NONE', *, *, #140, .F. ) ;
#77 = CARTESIAN_POINT ( 'NONE',  ( 1.396592535537253342E-14, 1.124819836996384858E-32, 4.000000000000000000 ) ) ;
#78 = CARTESIAN_POINT ( 'NONE',  ( 0.0000000000000000000, 0.0000000000000000000, 0.0000000000000000000 ) ) ;
#79 = AXIS2_PLACEMENT_3D ( 'NONE', #47, #187, #199 ) ;
#80 = DIRECTION ( 'NONE',  ( 3.491481338843133355E-15, -1.224646799147353207E-16, 1.000000000000000000 ) ) ;
#81 = ADVANCED_FACE ( 'NONE', ( #62, #164 ), #46, .T. ) ;
#82 = CARTESIAN_POINT ( 'NONE',  ( 1.396592535537253342E-14, 1.124819836996384858E-32, 4.000000000000000000 ) ) ;
#83 =( NAMED_UNIT ( * ) SI_UNIT ( $, .STERADIAN. ) SOLID_ANGLE_UNIT ( ) );
#84 = MECHANICAL_CONTEXT ( 'NONE', #189, 'mechanical' ) ;
#85 = LOCAL_TIME ( 15, 59, 13.00000000000000000, #177 ) ;
#86 = DATE_AND_TIME ( #190, #184 ) ;
#87 = CARTESIAN_POINT ( 'NONE',  ( -6.413731847436034514E-31, 0.0000000000000000000, -1.836965810494968570E-16 ) ) ;
#88 = COORDINATED_UNIVERSAL_TIME_OFFSET ( 1, 0, .AHEAD. ) ;
#89 = DATE_AND_TIME ( #26, #85 ) ;
#90 = EDGE_LOOP ( 'NONE', ( #8 ) ) ;
#91 = DIRECTION ( 'NONE',  ( 0.0000000000000000000, -1.000000000000000000, 0.0000000000000000000 ) ) ;
#92 = AXIS2_PLACEMENT_3D ( 'NONE', #6, #175, #67 ) ;
#93 = CARTESIAN_POINT ( 'NONE',  ( 1.326762908760390423E-13, 8.998558695971030697E-33, 38.00000000000000000 ) ) ;
#94 = DIRECTION ( 'NONE',  ( -3.491481338843133355E-15, 1.224646799147353207E-16, -1.000000000000000000 ) ) ;
#95 = DIRECTION ( 'NONE',  ( 4.275831445896958607E-31, 1.000000000000000000, 1.224646799147353207E-16 ) ) ;
#96 = DIRECTION ( 'NONE',  ( 4.275831445896958607E-31, 1.000000000000000000, 1.224646799147353207E-16 ) ) ;
#97 = COORDINATED_UNIVERSAL_TIME_OFFSET ( 1, 0, .AHEAD. ) ;
#98 = PRODUCT_RELATED_PRODUCT_CATEGORY ( 'detail', '', ( #61 ) ) ;
#99 = PERSON_AND_ORGANIZATION_ROLE ( 'creator' ) ;
#100 = PERSON_AND_ORGANIZATION ( #123, #60 ) ;
#101 = EDGE_LOOP ( 'NONE', ( #214 ) ) ;
#102 = APPROVAL_STATUS ( 'not_yet_approved' ) ;
#103 = ORIENTED_EDGE ( 'NONE', *, *, #202, .F. ) ;
#104 = CARTESIAN_POINT ( 'NONE',  ( 1.326762908760390423E-13, 1.199999999999989297, 38.00000000000000000 ) ) ;
#105 = APPROVAL_ROLE ( '' ) ;
#106 = AXIS2_PLACEMENT_3D ( 'NONE', #78, #19, #96 ) ;
#107 = LOCAL_TIME ( 15, 59, 13.00000000000000000, #122 ) ;
#108 = FACE_OUTER_BOUND ( 'NONE', #10, .T. ) ;
#109 = EDGE_LOOP ( 'NONE', ( #195 ) ) ;
#110 = PLANE ( 'NONE',  #132 ) ;
#111 = CARTESIAN_POINT ( 'NONE',  ( 2.539219478909125794E-14, 1.499999999999991340, 7.272613634390697968 ) ) ;
#112 = CC_DESIGN_APPROVAL ( #165, ( #3 ) ) ;
#113 = CARTESIAN_POINT ( 'NONE',  ( 1.326762908760390423E-13, -4.653657836759941941E-15, 38.00000000000000000 ) ) ;
#114 = PLANE ( 'NONE',  #15 ) ;
#115 = DIRECTION ( 'NONE',  ( -4.275831445896958607E-31, -1.000000000000000000, -1.224646799147353207E-16 ) ) ;
#116 = CC_DESIGN_APPROVAL ( #11, ( #14 ) ) ;
#117 = APPROVAL_ROLE ( '' ) ;
#118 = APPROVAL_DATE_TIME ( #51, #197 ) ;
#119 =( LENGTH_UNIT ( ) NAMED_UNIT ( * ) SI_UNIT ( .MILLI., .METRE. ) );
#120 = MANIFOLD_SOLID_BREP ( 'Corps-Déplacer/Copier1[2]', #181 ) ;
#121 = CYLINDRICAL_SURFACE ( 'NONE', #211, 0.7999999999999992673 ) ;
#122 = COORDINATED_UNIVERSAL_TIME_OFFSET ( 1, 0, .AHEAD. ) ;
#123 = PERSON ( 'UNSPECIFIED', 'UNSPECIFIED', 'UNSPECIFIED', ('UNSPECIFIED'), ('UNSPECIFIED'), ('UNSPECIFIED') ) ;
#124 = CC_DESIGN_PERSON_AND_ORGANIZATION_ASSIGNMENT ( #68, #188, ( #61 ) ) ;
#125 = AXIS2_PLACEMENT_3D ( 'NONE', #45, #32, #20 ) ;
#126 = DIRECTION ( 'NONE',  ( 3.491481338843133355E-15, -1.227517819005651059E-16, 1.000000000000000000 ) ) ;
#127 = DIRECTION ( 'NONE',  ( -4.275831445896958607E-31, -1.000000000000000000, -1.224646799147353207E-16 ) ) ;
#128 = FACE_OUTER_BOUND ( 'NONE', #75, .T. ) ;
#129 = PRODUCT_DEFINITION_SHAPE ( 'NONE', 'NONE',  #14 ) ;
#130 = FACE_OUTER_BOUND ( 'NONE', #5, .T. ) ;
#131 = FACE_OUTER_BOUND ( 'NONE', #109, .T. ) ;
#132 = AXIS2_PLACEMENT_3D ( 'NONE', #77, #80, #127 ) ;
#133 = PERSON_AND_ORGANIZATION ( #123, #60 ) ;
#134 = PERSON_AND_ORGANIZATION_ROLE ( 'design_supplier' ) ;
#135 = CC_DESIGN_PERSON_AND_ORGANIZATION_ASSIGNMENT ( #100, #134, ( #71 ) ) ;
#136 = CONICAL_SURFACE ( 'NONE', #59, 1.199999999999993738, 0.7853981633974453924 ) ;
#137 = SECURITY_CLASSIFICATION_LEVEL ( 'unclassified' ) ;
#138 = PERSON_AND_ORGANIZATION ( #123, #60 ) ;
#139 = ORIENTED_EDGE ( 'NONE', *, *, #216, .F. ) ;
#140 = EDGE_CURVE ( 'NONE', #145, #145, #25, .T. ) ;
#141 = EDGE_LOOP ( 'NONE', ( #58 ) ) ;
#142 = CC_DESIGN_SECURITY_CLASSIFICATION ( #3, ( #71 ) ) ;
#143 = CARTESIAN_POINT ( 'NONE',  ( 1.396592535537253027E-14, -4.910071276022603248E-16, 3.999999999999999112 ) ) ;
#144 = CIRCLE ( 'NONE', #125, 1.499999999999993783 ) ;
#145 = VERTEX_POINT ( 'NONE', #104 ) ;
#146 = PLANE ( 'NONE',  #222 ) ;
#147 = DIRECTION ( 'NONE',  ( 0.0000000000000000000, 1.000000000000000000, 0.0000000000000000000 ) ) ;
#148 = CC_DESIGN_DATE_AND_TIME_ASSIGNMENT ( #194, #57, ( #3 ) ) ;
#149 = VERTEX_POINT ( 'NONE', #111 ) ;
#150 =( NAMED_UNIT ( * ) PLANE_ANGLE_UNIT ( ) SI_UNIT ( $, .RADIAN. ) );
#151 = AXIS2_PLACEMENT_3D ( 'NONE', #220, #30, #1 ) ;
#152 = CIRCLE ( 'NONE', #79, 0.7999999999999994893 ) ;
#153 = PERSON_AND_ORGANIZATION ( #123, #60 ) ;
#154 = AXIS2_PLACEMENT_3D ( 'NONE', #143, #159, #221 ) ;
#155 = CARTESIAN_POINT ( 'NONE',  ( 1.316288464743861212E-13, 1.499999999999989120, 37.69999999999999574 ) ) ;
#156 = EDGE_LOOP ( 'NONE', ( #178 ) ) ;
#157 = APPROVAL_DATE_TIME ( #89, #165 ) ;
#158 = ORIENTED_EDGE ( 'NONE', *, *, #36, .T. ) ;
#159 = DIRECTION ( 'NONE',  ( 3.491481338843133355E-15, -1.227517819005651059E-16, 1.000000000000000000 ) ) ;
#160 = ADVANCED_FACE ( 'NONE', ( #131 ), #110, .F. ) ;
#161 = CLOSED_SHELL ( 'NONE', ( #81, #21, #198, #72, #160 ) ) ;
#162 = CC_DESIGN_APPROVAL ( #197, ( #71 ) ) ;
#163 = VERTEX_POINT ( 'NONE', #179 ) ;
#164 = FACE_OUTER_BOUND ( 'NONE', #43, .T. ) ;
#165 = APPROVAL ( #213, 'UNSPECIFIED' ) ;
#166 = FACE_OUTER_BOUND ( 'NONE', #101, .T. ) ;
#167 = AXIS2_PLACEMENT_3D ( 'NONE', #185, #64, #168 ) ;
#168 = DIRECTION ( 'NONE',  ( -4.349082449591986113E-31, -1.000000000000000000, -1.227517819005651059E-16 ) ) ;
#169 = APPROVAL_ROLE ( '' ) ;
#170 = ADVANCED_FACE ( 'NONE', ( #223 ), #146, .F. ) ;
#171 = LOCAL_TIME ( 15, 59, 13.00000000000000000, #97 ) ;
#172 = EDGE_LOOP ( 'NONE', ( #74 ) ) ;
#173 = CARTESIAN_POINT ( 'NONE',  ( -6.857368893049039467E-31, -0.7999999999999994893, -1.964028510409039870E-16 ) ) ;
#174 = EDGE_LOOP ( 'NONE', ( #158 ) ) ;
#175 = DIRECTION ( 'NONE',  ( 0.0000000000000000000, 0.0000000000000000000, 1.000000000000000000 ) ) ;
#176 = CIRCLE ( 'NONE', #154, 0.7999999999999991562 ) ;
#177 = COORDINATED_UNIVERSAL_TIME_OFFSET ( 1, 0, .AHEAD. ) ;
#178 = ORIENTED_EDGE ( 'NONE', *, *, #140, .T. ) ;
#179 = CARTESIAN_POINT ( 'NONE',  ( 1.396592535537253027E-14, -0.7999999999999997113, 3.999999999999999112 ) ) ;
#180 = CC_DESIGN_PERSON_AND_ORGANIZATION_ASSIGNMENT ( #35, #99, ( #71 ) ) ;
#181 = CLOSED_SHELL ( 'NONE', ( #53, #2, #170 ) ) ;
#182 = AXIS2_PLACEMENT_3D ( 'NONE', #93, #201, #95 ) ;
#183 = CC_DESIGN_DATE_AND_TIME_ASSIGNMENT ( #33, #208, ( #14 ) ) ;
#184 = LOCAL_TIME ( 15, 59, 13.00000000000000000, #88 ) ;
#185 = CARTESIAN_POINT ( 'NONE',  ( 1.396592535537253027E-14, 0.0000000000000000000, 3.999999999999999112 ) ) ;
#186 = DIRECTION ( 'NONE',  ( -3.491481338843133355E-15, 1.224646799147353207E-16, -1.000000000000000000 ) ) ;
#187 = DIRECTION ( 'NONE',  ( 3.491481338843133355E-15, -1.227517819005651059E-16, 1.000000000000000000 ) ) ;
#188 = PERSON_AND_ORGANIZATION_ROLE ( 'design_owner' ) ;
#189 = APPLICATION_CONTEXT ( 'configuration controlled 3d designs of mechanical parts and assemblies' ) ;
#190 = CALENDAR_DATE ( 2021, 16, 11 ) ;
#191 = PERSON_AND_ORGANIZATION_ROLE ( 'creator' ) ;
#192 = DIRECTION ( 'NONE',  ( 3.491481338843133355E-15, -1.227517819005651059E-16, 1.000000000000000000 ) ) ;
#193 = CALENDAR_DATE ( 2021, 16, 11 ) ;
#194 = DATE_AND_TIME ( #38, #107 ) ;
#195 = ORIENTED_EDGE ( 'NONE', *, *, #36, .F. ) ;
#196 = AXIS2_PLACEMENT_3D ( 'NONE', #113, #94, #147 ) ;
#197 = APPROVAL ( #102, 'UNSPECIFIED' ) ;
#198 = ADVANCED_FACE ( 'NONE', ( #128 ), #28, .F. ) ;
#199 = DIRECTION ( 'NONE',  ( -4.285855558155653280E-31, -1.000000000000000000, -1.227517819005651059E-16 ) ) ;
#200 = FACE_OUTER_BOUND ( 'NONE', #90, .T. ) ;
#201 = DIRECTION ( 'NONE',  ( -3.491481338843133355E-15, 1.224646799147353207E-16, -1.000000000000000000 ) ) ;
#202 = EDGE_CURVE ( 'NONE', #73, #73, #152, .T. ) ;
#203 = FACE_BOUND ( 'NONE', #156, .T. ) ;
#204 = COORDINATED_UNIVERSAL_TIME_OFFSET ( 1, 0, .AHEAD. ) ;
#205 = CIRCLE ( 'NONE', #151, 1.499999999999991784 ) ;
#206 =( GEOMETRIC_REPRESENTATION_CONTEXT ( 3 ) GLOBAL_UNCERTAINTY_ASSIGNED_CONTEXT ( ( #34 ) ) GLOBAL_UNIT_ASSIGNED_CONTEXT ( ( #119, #150, #83 ) ) REPRESENTATION_CONTEXT ( 'NONE', 'WORKASPACE' ) );
#207 = CC_DESIGN_PERSON_AND_ORGANIZATION_ASSIGNMENT ( #212, #56, ( #3 ) ) ;
#208 = DATE_TIME_ROLE ( 'creation_date' ) ;
#209 = APPLICATION_PROTOCOL_DEFINITION ( 'international standard', 'config_control_design', 1994, #189 ) ;
#210 = CC_DESIGN_PERSON_AND_ORGANIZATION_ASSIGNMENT ( #153, #191, ( #14 ) ) ;
#211 = AXIS2_PLACEMENT_3D ( 'NONE', #87, #192, #27 ) ;
#212 = PERSON_AND_ORGANIZATION ( #123, #60 ) ;
#213 = APPROVAL_STATUS ( 'not_yet_approved' ) ;
#214 = ORIENTED_EDGE ( 'NONE', *, *, #17, .T. ) ;
#215 = ADVANCED_BREP_SHAPE_REPRESENTATION ( '964133', ( #54, #120, #92 ), #206 ) ;
#216 = EDGE_CURVE ( 'NONE', #37, #37, #144, .T. ) ;
#217 = TOROIDAL_SURFACE ( 'NONE', #167, 8.799999999999998934, 8.000000000000000000 ) ;
#218 = APPROVAL_PERSON_ORGANIZATION ( #52, #197, #117 ) ;
#219 = FACE_OUTER_BOUND ( 'NONE', #174, .T. ) ;
#220 = CARTESIAN_POINT ( 'NONE',  ( 2.539219478909125794E-14, -4.017191550935427338E-16, 7.272613634390697968 ) ) ;
#221 = DIRECTION ( 'NONE',  ( 0.0000000000000000000, -1.000000000000000000, 0.0000000000000000000 ) ) ;
#222 = AXIS2_PLACEMENT_3D ( 'NONE', #18, #48, #115 ) ;
#223 = FACE_OUTER_BOUND ( 'NONE', #23, .T. ) ;
ENDSEC;
END-ISO-10303-21;
