ISO-10303-21;
HEADER;
FILE_DESCRIPTION (( 'STEP AP203' ),
    '1' );
FILE_NAME ('964132.step',
    '2021-11-16T14:59:13',
    ( '' ),
    ( '' ),
    'SwSTEP 2.0',
    'SolidWorks 2019',
    '' );
FILE_SCHEMA (( 'CONFIG_CONTROL_DESIGN' ));
ENDSEC;

DATA;
#1 = FACE_OUTER_BOUND ( 'NONE', #62, .T. ) ;
#2 = PLANE ( 'NONE',  #203 ) ;
#3 = CARTESIAN_POINT ( 'NONE',  ( 1.316288464743861212E-13, -4.616918432785521081E-15, 37.69999999999999574 ) ) ;
#4 = DIRECTION ( 'NONE',  ( 0.0000000000000000000, -1.000000000000000000, 0.0000000000000000000 ) ) ;
#5 = PERSON_AND_ORGANIZATION_ROLE ( 'design_supplier' ) ;
#6 = AXIS2_PLACEMENT_3D ( 'NONE', #120, #181, #160 ) ;
#7 =( LENGTH_UNIT ( ) NAMED_UNIT ( * ) SI_UNIT ( .MILLI., .METRE. ) );
#8 = PERSON_AND_ORGANIZATION_ROLE ( 'design_owner' ) ;
#9 = EDGE_CURVE ( 'NONE', #213, #213, #74, .T. ) ;
#10 = ORGANIZATION ( 'UNSPECIFIED', 'UNSPECIFIED', '' ) ;
#11 = EDGE_LOOP ( 'NONE', ( #185 ) ) ;
#12 = CARTESIAN_POINT ( 'NONE',  ( -3.214391668616737332E-31, -1.124808268304440128E-32, -9.206383642542375544E-17 ) ) ;
#13 = AXIS2_PLACEMENT_3D ( 'NONE', #83, #100, #32 ) ;
#14 = AXIS2_PLACEMENT_3D ( 'NONE', #174, #132, #222 ) ;
#15 = EDGE_LOOP ( 'NONE', ( #95 ) ) ;
#16 = DIRECTION ( 'NONE',  ( 0.0000000000000000000, 1.000000000000000000, 0.0000000000000000000 ) ) ;
#17 = PRODUCT_DEFINITION_FORMATION_WITH_SPECIFIED_SOURCE ( 'ANY', '', #80, .NOT_KNOWN. ) ;
#18 = CARTESIAN_POINT ( 'NONE',  ( 1.309305502066174693E-14, -4.603191821271190607E-16, 3.749999999999999112 ) ) ;
#19 = DIRECTION ( 'NONE',  ( 3.491481338843133355E-15, -1.227517819005651059E-16, 1.000000000000000000 ) ) ;
#20 = DIRECTION ( 'NONE',  ( -3.491481338843133355E-15, 1.224646799147353207E-16, -1.000000000000000000 ) ) ;
#21 = CLOSED_SHELL ( 'NONE', ( #85, #201, #212 ) ) ;
#22 = VERTEX_POINT ( 'NONE', #133 ) ;
#23 = COORDINATED_UNIVERSAL_TIME_OFFSET ( 1, 0, .AHEAD. ) ;
#24 = SECURITY_CLASSIFICATION_LEVEL ( 'unclassified' ) ;
#25 = APPLICATION_CONTEXT ( 'configuration controlled 3d designs of mechanical parts and assemblies' ) ;
#26 = MECHANICAL_CONTEXT ( 'NONE', #188, 'mechanical' ) ;
#27 = PERSON_AND_ORGANIZATION ( #166, #10 ) ;
#28 = CALENDAR_DATE ( 2021, 16, 11 ) ;
#29 = CC_DESIGN_APPROVAL ( #92, ( #209 ) ) ;
#30 = COORDINATED_UNIVERSAL_TIME_OFFSET ( 1, 0, .AHEAD. ) ;
#31 = CC_DESIGN_PERSON_AND_ORGANIZATION_ASSIGNMENT ( #216, #87, ( #17 ) ) ;
#32 = DIRECTION ( 'NONE',  ( 4.275831445896958607E-31, 1.000000000000000000, 1.224646799147353207E-16 ) ) ;
#33 = PLANE ( 'NONE',  #14 ) ;
#34 = AXIS2_PLACEMENT_3D ( 'NONE', #151, #171, #157 ) ;
#35 = FACE_OUTER_BOUND ( 'NONE', #11, .T. ) ;
#36 = COORDINATED_UNIVERSAL_TIME_OFFSET ( 1, 0, .AHEAD. ) ;
#37 = DATE_AND_TIME ( #197, #220 ) ;
#38 = AXIS2_PLACEMENT_3D ( 'NONE', #211, #20, #191 ) ;
#39 = CARTESIAN_POINT ( 'NONE',  ( 1.316288464743861212E-13, 1.499999999999989120, 37.69999999999999574 ) ) ;
#40 = LOCAL_TIME ( 15, 59, 13.00000000000000000, #146 ) ;
#41 = DIRECTION ( 'NONE',  ( -3.491481338843133355E-15, 1.227517819005651059E-16, -1.000000000000000000 ) ) ;
#42 = MANIFOLD_SOLID_BREP ( 'Corps-Déplacer/Copier1[1]', #145 ) ;
#43 = EDGE_LOOP ( 'NONE', ( #165 ) ) ;
#44 = EDGE_LOOP ( 'NONE', ( #127 ) ) ;
#45 = EDGE_CURVE ( 'NONE', #22, #22, #204, .T. ) ;
#46 = EDGE_CURVE ( 'NONE', #86, #86, #179, .T. ) ;
#47 = FACE_OUTER_BOUND ( 'NONE', #96, .T. ) ;
#48 = AXIS2_PLACEMENT_3D ( 'NONE', #199, #41, #108 ) ;
#49 = DIRECTION ( 'NONE',  ( 3.491481338843133355E-15, -1.227517819005651059E-16, 1.000000000000000000 ) ) ;
#50 = UNCERTAINTY_MEASURE_WITH_UNIT (LENGTH_MEASURE( 1.000000000000000082E-05 ), #7, 'distance_accuracy_value', 'NONE');
#51 = DIRECTION ( 'NONE',  ( 4.275831445896958607E-31, 1.000000000000000000, 1.224646799147353207E-16 ) ) ;
#52 = FACE_BOUND ( 'NONE', #43, .T. ) ;
#53 = APPROVAL_DATE_TIME ( #89, #107 ) ;
#54 = CALENDAR_DATE ( 2021, 16, 11 ) ;
#55 = VERTEX_POINT ( 'NONE', #39 ) ;
#56 = DATE_TIME_ROLE ( 'creation_date' ) ;
#57 = VERTEX_POINT ( 'NONE', #198 ) ;
#58 = CARTESIAN_POINT ( 'NONE',  ( 1.309305502066174693E-14, -4.603191821271190607E-16, 3.749999999999999112 ) ) ;
#59 = EDGE_LOOP ( 'NONE', ( #128 ) ) ;
#60 = SHAPE_DEFINITION_REPRESENTATION ( #119, #180 ) ;
#61 = AXIS2_PLACEMENT_3D ( 'NONE', #172, #49, #156 ) ;
#62 = EDGE_LOOP ( 'NONE', ( #77 ) ) ;
#63 = CARTESIAN_POINT ( 'NONE',  ( -6.428783337233476416E-31, -0.7499999999999997780, -1.841276728508475602E-16 ) ) ;
#64 = DIRECTION ( 'NONE',  ( -3.491481338843133355E-15, 1.224646799147353207E-16, -1.000000000000000000 ) ) ;
#65 = FACE_OUTER_BOUND ( 'NONE', #149, .T. ) ;
#66 = FACE_OUTER_BOUND ( 'NONE', #59, .T. ) ;
#67 = FACE_OUTER_BOUND ( 'NONE', #186, .T. ) ;
#68 = APPROVAL ( #143, 'UNSPECIFIED' ) ;
#69 = PERSON_AND_ORGANIZATION ( #166, #10 ) ;
#70 = PRODUCT_DEFINITION ( 'UNKNOWN', '', #17, #138 ) ;
#71 = APPLICATION_PROTOCOL_DEFINITION ( 'international standard', 'config_control_design', 1994, #25 ) ;
#72 = PERSON_AND_ORGANIZATION ( #166, #10 ) ;
#73 = AXIS2_PLACEMENT_3D ( 'NONE', #137, #169, #101 ) ;
#74 = CIRCLE ( 'NONE', #218, 0.7499999999999993339 ) ;
#75 = EDGE_CURVE ( 'NONE', #57, #57, #208, .T. ) ;
#76 = AXIS2_PLACEMENT_3D ( 'NONE', #12, #116, #97 ) ;
#77 = ORIENTED_EDGE ( 'NONE', *, *, #190, .F. ) ;
#78 = ORIENTED_EDGE ( 'NONE', *, *, #46, .T. ) ;
#79 = DIRECTION ( 'NONE',  ( 3.491481338843133355E-15, -1.224646799147353207E-16, 1.000000000000000000 ) ) ;
#80 = PRODUCT ( '964132', '964132', '', ( #26 ) ) ;
#81 = DIRECTION ( 'NONE',  ( -4.275831445896958607E-31, -1.000000000000000000, -1.224646799147353207E-16 ) ) ;
#82 = ADVANCED_FACE ( 'NONE', ( #35 ), #114, .F. ) ;
#83 = CARTESIAN_POINT ( 'NONE',  ( 1.326762908760390423E-13, 8.998558695971030697E-33, 38.00000000000000000 ) ) ;
#84 = LOCAL_TIME ( 15, 59, 13.00000000000000000, #30 ) ;
#85 = ADVANCED_FACE ( 'NONE', ( #67 ), #2, .T. ) ;
#86 = VERTEX_POINT ( 'NONE', #63 ) ;
#87 = PERSON_AND_ORGANIZATION_ROLE ( 'creator' ) ;
#88 = DATE_AND_TIME ( #54, #130 ) ;
#89 = DATE_AND_TIME ( #178, #40 ) ;
#90 = APPROVAL_ROLE ( '' ) ;
#91 = AXIS2_PLACEMENT_3D ( 'NONE', #194, #64, #51 ) ;
#92 = APPROVAL ( #152, 'UNSPECIFIED' ) ;
#93 = EDGE_LOOP ( 'NONE', ( #78 ) ) ;
#94 = APPROVAL_PERSON_ORGANIZATION ( #123, #107, #90 ) ;
#95 = ORIENTED_EDGE ( 'NONE', *, *, #9, .T. ) ;
#96 = EDGE_LOOP ( 'NONE', ( #200 ) ) ;
#97 = DIRECTION ( 'NONE',  ( -4.285855558155653280E-31, -1.000000000000000000, -1.227517819005651059E-16 ) ) ;
#98 = CC_DESIGN_SECURITY_CLASSIFICATION ( #209, ( #17 ) ) ;
#99 = DATE_TIME_ROLE ( 'classification_date' ) ;
#100 = DIRECTION ( 'NONE',  ( -3.491481338843133355E-15, 1.224646799147353207E-16, -1.000000000000000000 ) ) ;
#101 = DIRECTION ( 'NONE',  ( -4.275831445896958607E-31, -1.000000000000000000, -1.224646799147353207E-16 ) ) ;
#102 = CARTESIAN_POINT ( 'NONE',  ( -6.413731847436034514E-31, 0.0000000000000000000, -1.836965810494968570E-16 ) ) ;
#103 = CALENDAR_DATE ( 2021, 16, 11 ) ;
#104 = APPLICATION_PROTOCOL_DEFINITION ( 'international standard', 'config_control_design', 1994, #188 ) ;
#105 = AXIS2_PLACEMENT_3D ( 'NONE', #18, #206, #4 ) ;
#106 =( NAMED_UNIT ( * ) SI_UNIT ( $, .STERADIAN. ) SOLID_ANGLE_UNIT ( ) );
#107 = APPROVAL ( #182, 'UNSPECIFIED' ) ;
#108 = DIRECTION ( 'NONE',  ( 0.0000000000000000000, 1.000000000000000000, 0.0000000000000000000 ) ) ;
#109 = ORIENTED_EDGE ( 'NONE', *, *, #190, .T. ) ;
#110 = EDGE_LOOP ( 'NONE', ( #167 ) ) ;
#111 = ORIENTED_EDGE ( 'NONE', *, *, #75, .T. ) ;
#112 = PERSON_AND_ORGANIZATION ( #166, #10 ) ;
#113 = MANIFOLD_SOLID_BREP ( 'Corps-Déplacer/Copier1[2]', #21 ) ;
#114 = PLANE ( 'NONE',  #73 ) ;
#115 = APPROVAL_PERSON_ORGANIZATION ( #72, #68, #215 ) ;
#116 = DIRECTION ( 'NONE',  ( 3.491481338843133355E-15, -1.227517819005651059E-16, 1.000000000000000000 ) ) ;
#117 = FACE_OUTER_BOUND ( 'NONE', #110, .T. ) ;
#118 = FACE_OUTER_BOUND ( 'NONE', #44, .T. ) ;
#119 = PRODUCT_DEFINITION_SHAPE ( 'NONE', 'NONE',  #70 ) ;
#120 = CARTESIAN_POINT ( 'NONE',  ( 0.0000000000000000000, 0.0000000000000000000, 0.0000000000000000000 ) ) ;
#121 =( NAMED_UNIT ( * ) PLANE_ANGLE_UNIT ( ) SI_UNIT ( $, .RADIAN. ) );
#122 =( GEOMETRIC_REPRESENTATION_CONTEXT ( 3 ) GLOBAL_UNCERTAINTY_ASSIGNED_CONTEXT ( ( #50 ) ) GLOBAL_UNIT_ASSIGNED_CONTEXT ( ( #7, #121, #106 ) ) REPRESENTATION_CONTEXT ( 'NONE', 'WORKASPACE' ) );
#123 = PERSON_AND_ORGANIZATION ( #166, #10 ) ;
#124 = ADVANCED_FACE ( 'NONE', ( #1, #52 ), #134, .T. ) ;
#125 = DIRECTION ( 'NONE',  ( 0.0000000000000000000, -1.000000000000000000, 0.0000000000000000000 ) ) ;
#126 = ADVANCED_FACE ( 'NONE', ( #65, #118 ), #189, .T. ) ;
#127 = ORIENTED_EDGE ( 'NONE', *, *, #45, .F. ) ;
#128 = ORIENTED_EDGE ( 'NONE', *, *, #75, .F. ) ;
#129 = CIRCLE ( 'NONE', #34, 1.199999999999993738 ) ;
#130 = LOCAL_TIME ( 15, 59, 13.00000000000000000, #141 ) ;
#131 = CC_DESIGN_DATE_AND_TIME_ASSIGNMENT ( #177, #99, ( #209 ) ) ;
#132 = DIRECTION ( 'NONE',  ( 3.491481338843133355E-15, -1.224646799147353207E-16, 1.000000000000000000 ) ) ;
#133 = CARTESIAN_POINT ( 'NONE',  ( 2.490102604378480137E-14, 1.499999999999991340, 7.131937314617153412 ) ) ;
#134 = CONICAL_SURFACE ( 'NONE', #38, 1.199999999999993738, 0.7853981633974453924 ) ;
#135 = FACE_OUTER_BOUND ( 'NONE', #148, .T. ) ;
#136 = CYLINDRICAL_SURFACE ( 'NONE', #196, 0.7499999999999995559 ) ;
#137 = CARTESIAN_POINT ( 'NONE',  ( 1.309305502066175008E-14, 1.124819836996384858E-32, 3.750000000000000000 ) ) ;
#138 = DESIGN_CONTEXT ( 'detailed design', #25, 'design' ) ;
#139 = PERSON_AND_ORGANIZATION_ROLE ( 'classification_officer' ) ;
#140 = AXIS2_PLACEMENT_3D ( 'NONE', #3, #173, #16 ) ;
#141 = COORDINATED_UNIVERSAL_TIME_OFFSET ( 1, 0, .AHEAD. ) ;
#142 = PERSON_AND_ORGANIZATION ( #166, #10 ) ;
#143 = APPROVAL_STATUS ( 'not_yet_approved' ) ;
#144 = CC_DESIGN_APPROVAL ( #68, ( #70 ) ) ;
#145 = CLOSED_SHELL ( 'NONE', ( #126, #124, #154, #168, #82 ) ) ;
#146 = COORDINATED_UNIVERSAL_TIME_OFFSET ( 1, 0, .AHEAD. ) ;
#147 = ORIENTED_EDGE ( 'NONE', *, *, #159, .F. ) ;
#148 = EDGE_LOOP ( 'NONE', ( #147 ) ) ;
#149 = EDGE_LOOP ( 'NONE', ( #109 ) ) ;
#150 = CC_DESIGN_DATE_AND_TIME_ASSIGNMENT ( #37, #56, ( #70 ) ) ;
#151 = CARTESIAN_POINT ( 'NONE',  ( 1.326762908760390423E-13, -4.653657836759941941E-15, 38.00000000000000000 ) ) ;
#152 = APPROVAL_STATUS ( 'not_yet_approved' ) ;
#153 = CARTESIAN_POINT ( 'NONE',  ( 1.309305502066174693E-14, -0.7499999999999997780, 3.749999999999999112 ) ) ;
#154 = ADVANCED_FACE ( 'NONE', ( #135 ), #192, .F. ) ;
#155 = CARTESIAN_POINT ( 'NONE',  ( 1.309305502066175008E-14, 1.124819836996384858E-32, 3.750000000000000000 ) ) ;
#156 = DIRECTION ( 'NONE',  ( -4.365125093687771441E-31, -1.000000000000000000, -1.227517819005651059E-16 ) ) ;
#157 = DIRECTION ( 'NONE',  ( 0.0000000000000000000, 1.000000000000000000, 0.0000000000000000000 ) ) ;
#158 = PERSON_AND_ORGANIZATION ( #166, #10 ) ;
#159 = EDGE_CURVE ( 'NONE', #161, #161, #129, .T. ) ;
#160 = DIRECTION ( 'NONE',  ( 1.000000000000000000, 0.0000000000000000000, 0.0000000000000000000 ) ) ;
#161 = VERTEX_POINT ( 'NONE', #214 ) ;
#162 = TOROIDAL_SURFACE ( 'NONE', #61, 8.749999999999998224, 7.999999999999998224 ) ;
#163 = LOCAL_TIME ( 15, 59, 13.00000000000000000, #36 ) ;
#164 = CC_DESIGN_PERSON_AND_ORGANIZATION_ASSIGNMENT ( #27, #8, ( #80 ) ) ;
#165 = ORIENTED_EDGE ( 'NONE', *, *, #159, .T. ) ;
#166 = PERSON ( 'UNSPECIFIED', 'UNSPECIFIED', 'UNSPECIFIED', ('UNSPECIFIED'), ('UNSPECIFIED'), ('UNSPECIFIED') ) ;
#167 = ORIENTED_EDGE ( 'NONE', *, *, #46, .F. ) ;
#168 = ADVANCED_FACE ( 'NONE', ( #210, #47 ), #162, .F. ) ;
#169 = DIRECTION ( 'NONE',  ( 3.491481338843133355E-15, -1.224646799147353207E-16, 1.000000000000000000 ) ) ;
#170 = APPROVAL_PERSON_ORGANIZATION ( #112, #92, #202 ) ;
#171 = DIRECTION ( 'NONE',  ( -3.491481338843133355E-15, 1.224646799147353207E-16, -1.000000000000000000 ) ) ;
#172 = CARTESIAN_POINT ( 'NONE',  ( 1.309305502066174693E-14, 0.0000000000000000000, 3.749999999999999112 ) ) ;
#173 = DIRECTION ( 'NONE',  ( -3.491481338843133355E-15, 1.224646799147353207E-16, -1.000000000000000000 ) ) ;
#174 = CARTESIAN_POINT ( 'NONE',  ( -1.282754905350004587E-30, 4.499298539707956128E-32, -3.673956068672651857E-16 ) ) ;
#175 = CC_DESIGN_PERSON_AND_ORGANIZATION_ASSIGNMENT ( #69, #139, ( #209 ) ) ;
#176 = PERSON_AND_ORGANIZATION_ROLE ( 'creator' ) ;
#177 = DATE_AND_TIME ( #103, #163 ) ;
#178 = CALENDAR_DATE ( 2021, 16, 11 ) ;
#179 = CIRCLE ( 'NONE', #76, 0.7499999999999997780 ) ;
#180 = ADVANCED_BREP_SHAPE_REPRESENTATION ( '964132', ( #42, #113, #6 ), #122 ) ;
#181 = DIRECTION ( 'NONE',  ( 0.0000000000000000000, 0.0000000000000000000, 1.000000000000000000 ) ) ;
#182 = APPROVAL_STATUS ( 'not_yet_approved' ) ;
#183 = DIRECTION ( 'NONE',  ( 3.491481338843133355E-15, -1.227517819005651059E-16, 1.000000000000000000 ) ) ;
#184 = DATE_AND_TIME ( #28, #84 ) ;
#185 = ORIENTED_EDGE ( 'NONE', *, *, #9, .F. ) ;
#186 = EDGE_LOOP ( 'NONE', ( #111 ) ) ;
#187 = DIRECTION ( 'NONE',  ( -4.285855558155653280E-31, -1.000000000000000000, -1.227517819005651059E-16 ) ) ;
#188 = APPLICATION_CONTEXT ( 'configuration controlled 3d designs of mechanical parts and assemblies' ) ;
#189 = CYLINDRICAL_SURFACE ( 'NONE', #91, 1.499999999999991784 ) ;
#190 = EDGE_CURVE ( 'NONE', #55, #55, #193, .T. ) ;
#191 = DIRECTION ( 'NONE',  ( 0.0000000000000000000, 1.000000000000000000, 0.0000000000000000000 ) ) ;
#192 = PLANE ( 'NONE',  #13 ) ;
#193 = CIRCLE ( 'NONE', #140, 1.499999999999993783 ) ;
#194 = CARTESIAN_POINT ( 'NONE',  ( 0.0000000000000000000, 0.0000000000000000000, 0.0000000000000000000 ) ) ;
#195 = APPROVAL_DATE_TIME ( #88, #68 ) ;
#196 = AXIS2_PLACEMENT_3D ( 'NONE', #102, #19, #187 ) ;
#197 = CALENDAR_DATE ( 2021, 16, 11 ) ;
#198 = CARTESIAN_POINT ( 'NONE',  ( 1.309305502066174693E-14, -0.7499999999999997780, 3.749999999999999112 ) ) ;
#199 = CARTESIAN_POINT ( 'NONE',  ( 2.490102604378480137E-14, -4.151388316452678190E-16, 7.131937314617153412 ) ) ;
#200 = ORIENTED_EDGE ( 'NONE', *, *, #45, .T. ) ;
#201 = ADVANCED_FACE ( 'NONE', ( #207, #66 ), #136, .T. ) ;
#202 = APPROVAL_ROLE ( '' ) ;
#203 = AXIS2_PLACEMENT_3D ( 'NONE', #155, #79, #81 ) ;
#204 = CIRCLE ( 'NONE', #48, 1.499999999999991784 ) ;
#205 = CC_DESIGN_APPROVAL ( #107, ( #17 ) ) ;
#206 = DIRECTION ( 'NONE',  ( 3.491481338843133355E-15, -1.227517819005651059E-16, 1.000000000000000000 ) ) ;
#207 = FACE_OUTER_BOUND ( 'NONE', #93, .T. ) ;
#208 = CIRCLE ( 'NONE', #105, 0.7499999999999993339 ) ;
#209 = SECURITY_CLASSIFICATION ( '', '', #24 ) ;
#210 = FACE_OUTER_BOUND ( 'NONE', #15, .T. ) ;
#211 = CARTESIAN_POINT ( 'NONE',  ( 1.326762908760390423E-13, -4.653657836759941941E-15, 38.00000000000000000 ) ) ;
#212 = ADVANCED_FACE ( 'NONE', ( #117 ), #33, .F. ) ;
#213 = VERTEX_POINT ( 'NONE', #153 ) ;
#214 = CARTESIAN_POINT ( 'NONE',  ( 1.326762908760390423E-13, 1.199999999999989297, 38.00000000000000000 ) ) ;
#215 = APPROVAL_ROLE ( '' ) ;
#216 = PERSON_AND_ORGANIZATION ( #166, #10 ) ;
#217 = CC_DESIGN_PERSON_AND_ORGANIZATION_ASSIGNMENT ( #158, #5, ( #17 ) ) ;
#218 = AXIS2_PLACEMENT_3D ( 'NONE', #58, #183, #125 ) ;
#219 = CC_DESIGN_PERSON_AND_ORGANIZATION_ASSIGNMENT ( #142, #176, ( #70 ) ) ;
#220 = LOCAL_TIME ( 15, 59, 13.00000000000000000, #23 ) ;
#221 = APPROVAL_DATE_TIME ( #184, #92 ) ;
#222 = DIRECTION ( 'NONE',  ( -4.275831445896958607E-31, -1.000000000000000000, -1.224646799147353207E-16 ) ) ;
#223 = PRODUCT_RELATED_PRODUCT_CATEGORY ( 'detail', '', ( #80 ) ) ;
ENDSEC;
END-ISO-10303-21;
