ISO-10303-21;
HEADER;
FILE_DESCRIPTION (( 'STEP AP203' ),
    '1' );
FILE_NAME ('964131.step',
    '2021-11-16T14:59:12',
    ( '' ),
    ( '' ),
    'SwSTEP 2.0',
    'SolidWorks 2019',
    '' );
FILE_SCHEMA (( 'CONFIG_CONTROL_DESIGN' ));
ENDSEC;

DATA;
#1 = EDGE_CURVE ( 'NONE', #111, #111, #190, .T. ) ;
#2 = EDGE_LOOP ( 'NONE', ( #55 ) ) ;
#3 = PRODUCT_RELATED_PRODUCT_CATEGORY ( 'detail', '', ( #201 ) ) ;
#4 = CARTESIAN_POINT ( 'NONE',  ( 1.326762908760390423E-13, -4.653657836759941941E-15, 38.00000000000000000 ) ) ;
#5 = PLANE ( 'NONE',  #145 ) ;
#6 = CARTESIAN_POINT ( 'NONE',  ( 1.222018468595096359E-14, -4.296312366519777473E-16, 3.499999999999999112 ) ) ;
#7 = CC_DESIGN_DATE_AND_TIME_ASSIGNMENT ( #12, #135, ( #109 ) ) ;
#8 = DIRECTION ( 'NONE',  ( -3.491481338843133355E-15, 1.224646799147353207E-16, -1.000000000000000000 ) ) ;
#9 = CC_DESIGN_APPROVAL ( #65, ( #109 ) ) ;
#10 = FACE_OUTER_BOUND ( 'NONE', #137, .T. ) ;
#11 = CIRCLE ( 'NONE', #38, 0.6999999999999996225 ) ;
#12 = DATE_AND_TIME ( #68, #91 ) ;
#13 = PERSON_AND_ORGANIZATION_ROLE ( 'classification_officer' ) ;
#14 = APPROVAL_ROLE ( '' ) ;
#15 = AXIS2_PLACEMENT_3D ( 'NONE', #84, #183, #151 ) ;
#16 = ADVANCED_FACE ( 'NONE', ( #104, #174 ), #88, .F. ) ;
#17 = ORIENTED_EDGE ( 'NONE', *, *, #102, .F. ) ;
#18 = ORIENTED_EDGE ( 'NONE', *, *, #157, .F. ) ;
#19 = AXIS2_PLACEMENT_3D ( 'NONE', #4, #8, #79 ) ;
#20 = ORIENTED_EDGE ( 'NONE', *, *, #37, .T. ) ;
#21 = CC_DESIGN_PERSON_AND_ORGANIZATION_ASSIGNMENT ( #222, #199, ( #109 ) ) ;
#22 = DIRECTION ( 'NONE',  ( 0.0000000000000000000, -1.000000000000000000, 0.0000000000000000000 ) ) ;
#23 = DIRECTION ( 'NONE',  ( 0.0000000000000000000, -1.000000000000000000, 0.0000000000000000000 ) ) ;
#24 = DIRECTION ( 'NONE',  ( -4.285855558155652404E-31, -1.000000000000000000, -1.227517819005651305E-16 ) ) ;
#25 = MANIFOLD_SOLID_BREP ( 'Corps-Déplacer/Copier1[1]', #49 ) ;
#26 = DIRECTION ( 'NONE',  ( 3.491481338843133355E-15, -1.224646799147353207E-16, 1.000000000000000000 ) ) ;
#27 = CARTESIAN_POINT ( 'NONE',  ( 2.439539614137115806E-14, 1.499999999999991340, 6.987119154832521772 ) ) ;
#28 = AXIS2_PLACEMENT_3D ( 'NONE', #214, #129, #90 ) ;
#29 = CALENDAR_DATE ( 2021, 16, 11 ) ;
#30 = APPLICATION_PROTOCOL_DEFINITION ( 'international standard', 'config_control_design', 1994, #163 ) ;
#31 = PERSON_AND_ORGANIZATION ( #186, #32 ) ;
#32 = ORGANIZATION ( 'UNSPECIFIED', 'UNSPECIFIED', '' ) ;
#33 = CLOSED_SHELL ( 'NONE', ( #118, #150, #221 ) ) ;
#34 = APPROVAL_DATE_TIME ( #98, #65 ) ;
#35 = APPROVAL ( #202, 'UNSPECIFIED' ) ;
#36 = AXIS2_PLACEMENT_3D ( 'NONE', #93, #96, #166 ) ;
#37 = EDGE_CURVE ( 'NONE', #73, #73, #95, .T. ) ;
#38 = AXIS2_PLACEMENT_3D ( 'NONE', #177, #196, #22 ) ;
#39 = DIRECTION ( 'NONE',  ( 0.0000000000000000000, 1.000000000000000000, 0.0000000000000000000 ) ) ;
#40 = CARTESIAN_POINT ( 'NONE',  ( -6.413731847436034514E-31, 0.0000000000000000000, -1.836965810494968570E-16 ) ) ;
#41 = DIRECTION ( 'NONE',  ( 3.491481338843133355E-15, -1.227517819005651059E-16, 1.000000000000000000 ) ) ;
#42 = DIRECTION ( 'NONE',  ( 3.491481338843133355E-15, -1.227517819005651059E-16, 1.000000000000000000 ) ) ;
#43 = FACE_OUTER_BOUND ( 'NONE', #158, .T. ) ;
#44 = APPROVAL ( #168, 'UNSPECIFIED' ) ;
#45 = LOCAL_TIME ( 15, 59, 12.00000000000000000, #197 ) ;
#46 = PERSON_AND_ORGANIZATION ( #186, #32 ) ;
#47 = CALENDAR_DATE ( 2021, 16, 11 ) ;
#48 = PERSON_AND_ORGANIZATION ( #186, #32 ) ;
#49 = CLOSED_SHELL ( 'NONE', ( #130, #77, #81, #16, #58 ) ) ;
#50 = EDGE_LOOP ( 'NONE', ( #18 ) ) ;
#51 = CC_DESIGN_APPROVAL ( #35, ( #205 ) ) ;
#52 = APPROVAL_DATE_TIME ( #70, #44 ) ;
#53 = DESIGN_CONTEXT ( 'detailed design', #187, 'design' ) ;
#54 = EDGE_CURVE ( 'NONE', #212, #212, #223, .T. ) ;
#55 = ORIENTED_EDGE ( 'NONE', *, *, #1, .F. ) ;
#56 = ORIENTED_EDGE ( 'NONE', *, *, #54, .F. ) ;
#57 = DIRECTION ( 'NONE',  ( -4.275831445896958607E-31, -1.000000000000000000, -1.224646799147353207E-16 ) ) ;
#58 = ADVANCED_FACE ( 'NONE', ( #180 ), #63, .F. ) ;
#59 = CARTESIAN_POINT ( 'NONE',  ( 1.222018468595096674E-14, 1.124819836996384858E-32, 3.500000000000000000 ) ) ;
#60 = DIRECTION ( 'NONE',  ( -3.491481338843133355E-15, 1.227517819005651059E-16, -1.000000000000000000 ) ) ;
#61 = CONICAL_SURFACE ( 'NONE', #172, 1.199999999999993738, 0.7853981633974453924 ) ;
#62 = FACE_OUTER_BOUND ( 'NONE', #120, .T. ) ;
#63 = PLANE ( 'NONE',  #117 ) ;
#64 = PERSON_AND_ORGANIZATION_ROLE ( 'design_supplier' ) ;
#65 = APPROVAL ( #113, 'UNSPECIFIED' ) ;
#66 = COORDINATED_UNIVERSAL_TIME_OFFSET ( 1, 0, .AHEAD. ) ;
#67 = LOCAL_TIME ( 15, 59, 12.00000000000000000, #181 ) ;
#68 = CALENDAR_DATE ( 2021, 16, 11 ) ;
#69 = AXIS2_PLACEMENT_3D ( 'NONE', #124, #94, #125 ) ;
#70 = DATE_AND_TIME ( #206, #127 ) ;
#71 = ORIENTED_EDGE ( 'NONE', *, *, #54, .T. ) ;
#72 = EDGE_LOOP ( 'NONE', ( #71 ) ) ;
#73 = VERTEX_POINT ( 'NONE', #161 ) ;
#74 = CARTESIAN_POINT ( 'NONE',  ( 2.439539614137115806E-14, -4.280500899552847580E-16, 6.987119154832521772 ) ) ;
#75 = CARTESIAN_POINT ( 'NONE',  ( -1.282754905350004587E-30, 4.499298539707956128E-32, -3.673956068672651857E-16 ) ) ;
#76 = VERTEX_POINT ( 'NONE', #140 ) ;
#77 = ADVANCED_FACE ( 'NONE', ( #147, #176 ), #61, .T. ) ;
#78 = CIRCLE ( 'NONE', #200, 0.6999999999999996225 ) ;
#79 = DIRECTION ( 'NONE',  ( 0.0000000000000000000, 1.000000000000000000, 0.0000000000000000000 ) ) ;
#80 = PERSON_AND_ORGANIZATION ( #186, #32 ) ;
#81 = ADVANCED_FACE ( 'NONE', ( #162 ), #5, .F. ) ;
#82 = APPROVAL_DATE_TIME ( #167, #35 ) ;
#83 = COORDINATED_UNIVERSAL_TIME_OFFSET ( 1, 0, .AHEAD. ) ;
#84 = CARTESIAN_POINT ( 'NONE',  ( 0.0000000000000000000, 0.0000000000000000000, 0.0000000000000000000 ) ) ;
#85 = ORIENTED_EDGE ( 'NONE', *, *, #37, .F. ) ;
#86 = ORIENTED_EDGE ( 'NONE', *, *, #142, .F. ) ;
#87 = APPROVAL_PERSON_ORGANIZATION ( #48, #65, #132 ) ;
#88 = TOROIDAL_SURFACE ( 'NONE', #69, 8.699999999999999289, 8.000000000000000000 ) ;
#89 = ORIENTED_EDGE ( 'NONE', *, *, #102, .T. ) ;
#90 = DIRECTION ( 'NONE',  ( 4.275831445896958607E-31, 1.000000000000000000, 1.224646799147353207E-16 ) ) ;
#91 = LOCAL_TIME ( 15, 59, 12.00000000000000000, #133 ) ;
#92 = CYLINDRICAL_SURFACE ( 'NONE', #155, 0.6999999999999996225 ) ;
#93 = CARTESIAN_POINT ( 'NONE',  ( -3.000098890708954493E-31, -1.200148268103259768E-32, -8.592624733039549275E-17 ) ) ;
#94 = DIRECTION ( 'NONE',  ( 3.491481338843133355E-15, -1.227517819005651059E-16, 1.000000000000000000 ) ) ;
#95 = CIRCLE ( 'NONE', #19, 1.199999999999993738 ) ;
#96 = DIRECTION ( 'NONE',  ( 3.491481338843133355E-15, -1.227517819005651059E-16, 1.000000000000000000 ) ) ;
#97 = MANIFOLD_SOLID_BREP ( 'Corps-Déplacer/Copier1[2]', #33 ) ;
#98 = DATE_AND_TIME ( #29, #67 ) ;
#99 = VERTEX_POINT ( 'NONE', #119 ) ;
#100 =( NAMED_UNIT ( * ) PLANE_ANGLE_UNIT ( ) SI_UNIT ( $, .RADIAN. ) );
#101 =( NAMED_UNIT ( * ) SI_UNIT ( $, .STERADIAN. ) SOLID_ANGLE_UNIT ( ) );
#102 = EDGE_CURVE ( 'NONE', #76, #76, #78, .T. ) ;
#103 = EDGE_LOOP ( 'NONE', ( #20 ) ) ;
#104 = FACE_OUTER_BOUND ( 'NONE', #191, .T. ) ;
#105 = FACE_OUTER_BOUND ( 'NONE', #171, .T. ) ;
#106 = FACE_OUTER_BOUND ( 'NONE', #50, .T. ) ;
#107 = APPROVAL_PERSON_ORGANIZATION ( #169, #35, #149 ) ;
#108 = DIRECTION ( 'NONE',  ( 3.491481338843133355E-15, -1.224646799147353207E-16, 1.000000000000000000 ) ) ;
#109 = PRODUCT_DEFINITION ( 'UNKNOWN', '', #205, #53 ) ;
#110 = CARTESIAN_POINT ( 'NONE',  ( 1.222018468595096359E-14, -0.7000000000000000666, 3.499999999999999112 ) ) ;
#111 = VERTEX_POINT ( 'NONE', #208 ) ;
#112 = APPROVAL_PERSON_ORGANIZATION ( #31, #44, #14 ) ;
#113 = APPROVAL_STATUS ( 'not_yet_approved' ) ;
#114 = PERSON_AND_ORGANIZATION ( #186, #32 ) ;
#115 = DATE_AND_TIME ( #47, #170 ) ;
#116 = MECHANICAL_CONTEXT ( 'NONE', #163, 'mechanical' ) ;
#117 = AXIS2_PLACEMENT_3D ( 'NONE', #192, #159, #57 ) ;
#118 = ADVANCED_FACE ( 'NONE', ( #105 ), #178, .T. ) ;
#119 = CARTESIAN_POINT ( 'NONE',  ( -6.000197781417910738E-31, -0.6999999999999996225, -1.718524946607910348E-16 ) ) ;
#120 = EDGE_LOOP ( 'NONE', ( #17 ) ) ;
#121 = CC_DESIGN_APPROVAL ( #44, ( #211 ) ) ;
#122 = PRODUCT_DEFINITION_SHAPE ( 'NONE', 'NONE',  #109 ) ;
#123 = ORIENTED_EDGE ( 'NONE', *, *, #157, .T. ) ;
#124 = CARTESIAN_POINT ( 'NONE',  ( 1.222018468595096359E-14, 0.0000000000000000000, 3.499999999999999112 ) ) ;
#125 = DIRECTION ( 'NONE',  ( -4.365362427626490434E-31, -1.000000000000000000, -1.227517819005651059E-16 ) ) ;
#126 = DIRECTION ( 'NONE',  ( -3.491481338843133355E-15, 1.224646799147353207E-16, -1.000000000000000000 ) ) ;
#127 = LOCAL_TIME ( 15, 59, 12.00000000000000000, #83 ) ;
#128 = DIRECTION ( 'NONE',  ( 0.0000000000000000000, 1.000000000000000000, 0.0000000000000000000 ) ) ;
#129 = DIRECTION ( 'NONE',  ( -3.491481338843133355E-15, 1.224646799147353207E-16, -1.000000000000000000 ) ) ;
#130 = ADVANCED_FACE ( 'NONE', ( #10, #175 ), #193, .T. ) ;
#131 = CC_DESIGN_SECURITY_CLASSIFICATION ( #211, ( #205 ) ) ;
#132 = APPROVAL_ROLE ( '' ) ;
#133 = COORDINATED_UNIVERSAL_TIME_OFFSET ( 1, 0, .AHEAD. ) ;
#134 =( GEOMETRIC_REPRESENTATION_CONTEXT ( 3 ) GLOBAL_UNCERTAINTY_ASSIGNED_CONTEXT ( ( #154 ) ) GLOBAL_UNIT_ASSIGNED_CONTEXT ( ( #152, #100, #101 ) ) REPRESENTATION_CONTEXT ( 'NONE', 'WORKASPACE' ) );
#135 = DATE_TIME_ROLE ( 'creation_date' ) ;
#136 = ORIENTED_EDGE ( 'NONE', *, *, #142, .T. ) ;
#137 = EDGE_LOOP ( 'NONE', ( #207 ) ) ;
#138 = EDGE_LOOP ( 'NONE', ( #86 ) ) ;
#139 = CC_DESIGN_PERSON_AND_ORGANIZATION_ASSIGNMENT ( #80, #64, ( #205 ) ) ;
#140 = CARTESIAN_POINT ( 'NONE',  ( 1.222018468595096359E-14, -0.7000000000000000666, 3.499999999999999112 ) ) ;
#141 = CARTESIAN_POINT ( 'NONE',  ( 1.326762908760390423E-13, -4.653657836759941941E-15, 38.00000000000000000 ) ) ;
#142 = EDGE_CURVE ( 'NONE', #144, #144, #11, .T. ) ;
#143 = DIRECTION ( 'NONE',  ( -4.275831445896958607E-31, -1.000000000000000000, -1.224646799147353207E-16 ) ) ;
#144 = VERTEX_POINT ( 'NONE', #110 ) ;
#145 = AXIS2_PLACEMENT_3D ( 'NONE', #210, #126, #194 ) ;
#146 = ADVANCED_BREP_SHAPE_REPRESENTATION ( '964131', ( #25, #97, #15 ), #134 ) ;
#147 = FACE_OUTER_BOUND ( 'NONE', #2, .T. ) ;
#148 = PERSON_AND_ORGANIZATION_ROLE ( 'design_owner' ) ;
#149 = APPROVAL_ROLE ( '' ) ;
#150 = ADVANCED_FACE ( 'NONE', ( #43, #62 ), #92, .T. ) ;
#151 = DIRECTION ( 'NONE',  ( 1.000000000000000000, 0.0000000000000000000, 0.0000000000000000000 ) ) ;
#152 =( LENGTH_UNIT ( ) NAMED_UNIT ( * ) SI_UNIT ( .MILLI., .METRE. ) );
#153 = DIRECTION ( 'NONE',  ( -3.491481338843133355E-15, 1.224646799147353207E-16, -1.000000000000000000 ) ) ;
#154 = UNCERTAINTY_MEASURE_WITH_UNIT (LENGTH_MEASURE( 1.000000000000000082E-05 ), #152, 'distance_accuracy_value', 'NONE');
#155 = AXIS2_PLACEMENT_3D ( 'NONE', #40, #42, #24 ) ;
#156 = EDGE_LOOP ( 'NONE', ( #56 ) ) ;
#157 = EDGE_CURVE ( 'NONE', #99, #99, #218, .T. ) ;
#158 = EDGE_LOOP ( 'NONE', ( #123 ) ) ;
#159 = DIRECTION ( 'NONE',  ( 3.491481338843133355E-15, -1.224646799147353207E-16, 1.000000000000000000 ) ) ;
#160 = PLANE ( 'NONE',  #164 ) ;
#161 = CARTESIAN_POINT ( 'NONE',  ( 1.326762908760390423E-13, 1.199999999999989297, 38.00000000000000000 ) ) ;
#162 = FACE_OUTER_BOUND ( 'NONE', #173, .T. ) ;
#163 = APPLICATION_CONTEXT ( 'configuration controlled 3d designs of mechanical parts and assemblies' ) ;
#164 = AXIS2_PLACEMENT_3D ( 'NONE', #75, #26, #143 ) ;
#165 = AXIS2_PLACEMENT_3D ( 'NONE', #59, #108, #195 ) ;
#166 = DIRECTION ( 'NONE',  ( -4.285855558155654155E-31, -1.000000000000000000, -1.227517819005651305E-16 ) ) ;
#167 = DATE_AND_TIME ( #220, #45 ) ;
#168 = APPROVAL_STATUS ( 'not_yet_approved' ) ;
#169 = PERSON_AND_ORGANIZATION ( #186, #32 ) ;
#170 = LOCAL_TIME ( 15, 59, 12.00000000000000000, #66 ) ;
#171 = EDGE_LOOP ( 'NONE', ( #89 ) ) ;
#172 = AXIS2_PLACEMENT_3D ( 'NONE', #141, #209, #39 ) ;
#173 = EDGE_LOOP ( 'NONE', ( #85 ) ) ;
#174 = FACE_OUTER_BOUND ( 'NONE', #72, .T. ) ;
#175 = FACE_OUTER_BOUND ( 'NONE', #156, .T. ) ;
#176 = FACE_BOUND ( 'NONE', #103, .T. ) ;
#177 = CARTESIAN_POINT ( 'NONE',  ( 1.222018468595096359E-14, -4.296312366519777473E-16, 3.499999999999999112 ) ) ;
#178 = PLANE ( 'NONE',  #165 ) ;
#179 = CC_DESIGN_PERSON_AND_ORGANIZATION_ASSIGNMENT ( #219, #215, ( #205 ) ) ;
#180 = FACE_OUTER_BOUND ( 'NONE', #138, .T. ) ;
#181 = COORDINATED_UNIVERSAL_TIME_OFFSET ( 1, 0, .AHEAD. ) ;
#182 = CC_DESIGN_PERSON_AND_ORGANIZATION_ASSIGNMENT ( #46, #148, ( #201 ) ) ;
#183 = DIRECTION ( 'NONE',  ( 0.0000000000000000000, 0.0000000000000000000, 1.000000000000000000 ) ) ;
#184 = DATE_TIME_ROLE ( 'classification_date' ) ;
#185 = AXIS2_PLACEMENT_3D ( 'NONE', #189, #153, #204 ) ;
#186 = PERSON ( 'UNSPECIFIED', 'UNSPECIFIED', 'UNSPECIFIED', ('UNSPECIFIED'), ('UNSPECIFIED'), ('UNSPECIFIED') ) ;
#187 = APPLICATION_CONTEXT ( 'configuration controlled 3d designs of mechanical parts and assemblies' ) ;
#188 = SHAPE_DEFINITION_REPRESENTATION ( #122, #146 ) ;
#189 = CARTESIAN_POINT ( 'NONE',  ( 1.316288464743861212E-13, -4.616918432785521081E-15, 37.69999999999999574 ) ) ;
#190 = CIRCLE ( 'NONE', #185, 1.499999999999993783 ) ;
#191 = EDGE_LOOP ( 'NONE', ( #136 ) ) ;
#192 = CARTESIAN_POINT ( 'NONE',  ( 1.222018468595096674E-14, 1.124819836996384858E-32, 3.500000000000000000 ) ) ;
#193 = CYLINDRICAL_SURFACE ( 'NONE', #28, 1.499999999999991784 ) ;
#194 = DIRECTION ( 'NONE',  ( 4.275831445896958607E-31, 1.000000000000000000, 1.224646799147353207E-16 ) ) ;
#195 = DIRECTION ( 'NONE',  ( -4.275831445896958607E-31, -1.000000000000000000, -1.224646799147353207E-16 ) ) ;
#196 = DIRECTION ( 'NONE',  ( 3.491481338843133355E-15, -1.227517819005651059E-16, 1.000000000000000000 ) ) ;
#197 = COORDINATED_UNIVERSAL_TIME_OFFSET ( 1, 0, .AHEAD. ) ;
#198 = SECURITY_CLASSIFICATION_LEVEL ( 'unclassified' ) ;
#199 = PERSON_AND_ORGANIZATION_ROLE ( 'creator' ) ;
#200 = AXIS2_PLACEMENT_3D ( 'NONE', #6, #41, #23 ) ;
#201 = PRODUCT ( '964131', '964131', '', ( #116 ) ) ;
#202 = APPROVAL_STATUS ( 'not_yet_approved' ) ;
#203 = CC_DESIGN_DATE_AND_TIME_ASSIGNMENT ( #115, #184, ( #211 ) ) ;
#204 = DIRECTION ( 'NONE',  ( 0.0000000000000000000, 1.000000000000000000, 0.0000000000000000000 ) ) ;
#205 = PRODUCT_DEFINITION_FORMATION_WITH_SPECIFIED_SOURCE ( 'ANY', '', #201, .NOT_KNOWN. ) ;
#206 = CALENDAR_DATE ( 2021, 16, 11 ) ;
#207 = ORIENTED_EDGE ( 'NONE', *, *, #1, .T. ) ;
#208 = CARTESIAN_POINT ( 'NONE',  ( 1.316288464743861212E-13, 1.499999999999989120, 37.69999999999999574 ) ) ;
#209 = DIRECTION ( 'NONE',  ( -3.491481338843133355E-15, 1.224646799147353207E-16, -1.000000000000000000 ) ) ;
#210 = CARTESIAN_POINT ( 'NONE',  ( 1.326762908760390423E-13, 8.998558695971030697E-33, 38.00000000000000000 ) ) ;
#211 = SECURITY_CLASSIFICATION ( '', '', #198 ) ;
#212 = VERTEX_POINT ( 'NONE', #27 ) ;
#213 = AXIS2_PLACEMENT_3D ( 'NONE', #74, #60, #128 ) ;
#214 = CARTESIAN_POINT ( 'NONE',  ( 0.0000000000000000000, 0.0000000000000000000, 0.0000000000000000000 ) ) ;
#215 = PERSON_AND_ORGANIZATION_ROLE ( 'creator' ) ;
#216 = CC_DESIGN_PERSON_AND_ORGANIZATION_ASSIGNMENT ( #114, #13, ( #211 ) ) ;
#217 = APPLICATION_PROTOCOL_DEFINITION ( 'international standard', 'config_control_design', 1994, #187 ) ;
#218 = CIRCLE ( 'NONE', #36, 0.6999999999999996225 ) ;
#219 = PERSON_AND_ORGANIZATION ( #186, #32 ) ;
#220 = CALENDAR_DATE ( 2021, 16, 11 ) ;
#221 = ADVANCED_FACE ( 'NONE', ( #106 ), #160, .F. ) ;
#222 = PERSON_AND_ORGANIZATION ( #186, #32 ) ;
#223 = CIRCLE ( 'NONE', #213, 1.499999999999991784 ) ;
ENDSEC;
END-ISO-10303-21;
