ISO-10303-21;
HEADER;
FILE_DESCRIPTION (( 'STEP AP203' ),
    '1' );
FILE_NAME ('964130.step',
    '2021-11-16T14:59:12',
    ( '' ),
    ( '' ),
    'SwSTEP 2.0',
    'SolidWorks 2019',
    '' );
FILE_SCHEMA (( 'CONFIG_CONTROL_DESIGN' ));
ENDSEC;

DATA;
#1 = SECURITY_CLASSIFICATION_LEVEL ( 'unclassified' ) ;
#2 =( NAMED_UNIT ( * ) SI_UNIT ( $, .STERADIAN. ) SOLID_ANGLE_UNIT ( ) );
#3 = APPROVAL_PERSON_ORGANIZATION ( #189, #46, #96 ) ;
#4 = ORGANIZATION ( 'UNSPECIFIED', 'UNSPECIFIED', '' ) ;
#5 = PERSON_AND_ORGANIZATION ( #67, #4 ) ;
#6 = ADVANCED_FACE ( 'NONE', ( #32, #76 ), #165, .T. ) ;
#7 = PERSON_AND_ORGANIZATION ( #67, #4 ) ;
#8 = APPLICATION_PROTOCOL_DEFINITION ( 'international standard', 'config_control_design', 1994, #75 ) ;
#9 = CIRCLE ( 'NONE', #21, 1.499999999999991784 ) ;
#10 = EDGE_LOOP ( 'NONE', ( #164 ) ) ;
#11 = EDGE_LOOP ( 'NONE', ( #47 ) ) ;
#12 = CARTESIAN_POINT ( 'NONE',  ( -6.413731847436034514E-31, 0.0000000000000000000, -1.836965810494968570E-16 ) ) ;
#13 = CARTESIAN_POINT ( 'NONE',  ( 1.134731435124018340E-14, 1.124819836996384858E-32, 3.250000000000000000 ) ) ;
#14 = EDGE_CURVE ( 'NONE', #185, #185, #9, .T. ) ;
#15 = CC_DESIGN_APPROVAL ( #211, ( #30 ) ) ;
#16 = CARTESIAN_POINT ( 'NONE',  ( 1.326762908760390423E-13, -4.653657836759941941E-15, 38.00000000000000000 ) ) ;
#17 = DIRECTION ( 'NONE',  ( 0.0000000000000000000, -1.000000000000000000, 0.0000000000000000000 ) ) ;
#18 = CARTESIAN_POINT ( 'NONE',  ( 1.134731435124018340E-14, 1.124819836996384858E-32, 3.250000000000000000 ) ) ;
#19 = EDGE_CURVE ( 'NONE', #20, #20, #217, .T. ) ;
#20 = VERTEX_POINT ( 'NONE', #115 ) ;
#21 = AXIS2_PLACEMENT_3D ( 'NONE', #83, #219, #63 ) ;
#22 = CARTESIAN_POINT ( 'NONE',  ( 0.0000000000000000000, 0.0000000000000000000, 0.0000000000000000000 ) ) ;
#23 = ADVANCED_FACE ( 'NONE', ( #37, #138 ), #84, .T. ) ;
#24 = PERSON_AND_ORGANIZATION ( #67, #4 ) ;
#25 = DIRECTION ( 'NONE',  ( 0.0000000000000000000, 0.0000000000000000000, 1.000000000000000000 ) ) ;
#26 = MANIFOLD_SOLID_BREP ( 'Corps-Déplacer/Copier1[1]', #187 ) ;
#27 = DESIGN_CONTEXT ( 'detailed design', #75, 'design' ) ;
#28 = AXIS2_PLACEMENT_3D ( 'NONE', #223, #166, #205 ) ;
#29 = ADVANCED_BREP_SHAPE_REPRESENTATION ( '964130', ( #26, #102, #171 ), #82 ) ;
#30 = PRODUCT_DEFINITION ( 'UNKNOWN', '', #48, #27 ) ;
#31 = EDGE_LOOP ( 'NONE', ( #145 ) ) ;
#32 = FACE_OUTER_BOUND ( 'NONE', #49, .T. ) ;
#33 = DIRECTION ( 'NONE',  ( -3.491481338843133355E-15, 1.224646799147353207E-16, -1.000000000000000000 ) ) ;
#34 = LOCAL_TIME ( 15, 59, 12.00000000000000000, #57 ) ;
#35 = DIRECTION ( 'NONE',  ( 3.491481338843133355E-15, -1.227517819005651059E-16, 1.000000000000000000 ) ) ;
#36 = CC_DESIGN_PERSON_AND_ORGANIZATION_ASSIGNMENT ( #7, #110, ( #30 ) ) ;
#37 = FACE_OUTER_BOUND ( 'NONE', #77, .T. ) ;
#38 = DIRECTION ( 'NONE',  ( 0.0000000000000000000, 1.000000000000000000, 0.0000000000000000000 ) ) ;
#39 = CARTESIAN_POINT ( 'NONE',  ( -1.282754905350004587E-30, 4.499298539707956128E-32, -3.673956068672651857E-16 ) ) ;
#40 = APPROVAL_STATUS ( 'not_yet_approved' ) ;
#41 = PERSON_AND_ORGANIZATION_ROLE ( 'classification_officer' ) ;
#42 = PERSON_AND_ORGANIZATION ( #67, #4 ) ;
#43 = AXIS2_PLACEMENT_3D ( 'NONE', #18, #184, #101 ) ;
#44 = PRODUCT_RELATED_PRODUCT_CATEGORY ( 'detail', '', ( #216 ) ) ;
#45 = COORDINATED_UNIVERSAL_TIME_OFFSET ( 1, 0, .AHEAD. ) ;
#46 = APPROVAL ( #40, 'UNSPECIFIED' ) ;
#47 = ORIENTED_EDGE ( 'NONE', *, *, #199, .T. ) ;
#48 = PRODUCT_DEFINITION_FORMATION_WITH_SPECIFIED_SOURCE ( 'ANY', '', #216, .NOT_KNOWN. ) ;
#49 = EDGE_LOOP ( 'NONE', ( #130 ) ) ;
#50 = TOROIDAL_SURFACE ( 'NONE', #109, 8.649999999999998579, 8.000000000000000000 ) ;
#51 = DIRECTION ( 'NONE',  ( -4.275831445896958607E-31, -1.000000000000000000, -1.224646799147353207E-16 ) ) ;
#52 = DIRECTION ( 'NONE',  ( 3.491481338843133355E-15, -1.224646799147353207E-16, 1.000000000000000000 ) ) ;
#53 = DIRECTION ( 'NONE',  ( 4.275831445896958607E-31, 1.000000000000000000, 1.224646799147353207E-16 ) ) ;
#54 = DIRECTION ( 'NONE',  ( -3.491481338843133355E-15, 1.224646799147353207E-16, -1.000000000000000000 ) ) ;
#55 = DIRECTION ( 'NONE',  ( 3.491481338843133355E-15, -1.227517819005651059E-16, 1.000000000000000000 ) ) ;
#56 = CIRCLE ( 'NONE', #152, 1.499999999999993783 ) ;
#57 = COORDINATED_UNIVERSAL_TIME_OFFSET ( 1, 0, .AHEAD. ) ;
#58 = CC_DESIGN_PERSON_AND_ORGANIZATION_ASSIGNMENT ( #87, #108, ( #48 ) ) ;
#59 = APPROVAL_DATE_TIME ( #195, #211 ) ;
#60 = AXIS2_PLACEMENT_3D ( 'NONE', #39, #121, #186 ) ;
#61 = EDGE_LOOP ( 'NONE', ( #131 ) ) ;
#62 = DIRECTION ( 'NONE',  ( -4.285855558155653280E-31, -1.000000000000000000, -1.227517819005651059E-16 ) ) ;
#63 = DIRECTION ( 'NONE',  ( 0.0000000000000000000, 1.000000000000000000, 0.0000000000000000000 ) ) ;
#64 = PLANE ( 'NONE',  #43 ) ;
#65 = DIRECTION ( 'NONE',  ( 3.491481338843133355E-15, -1.227517819005651059E-16, 1.000000000000000000 ) ) ;
#66 = CARTESIAN_POINT ( 'NONE',  ( 1.134731435124018025E-14, -0.6500000000000003553, 3.249999999999999112 ) ) ;
#67 = PERSON ( 'UNSPECIFIED', 'UNSPECIFIED', 'UNSPECIFIED', ('UNSPECIFIED'), ('UNSPECIFIED'), ('UNSPECIFIED') ) ;
#68 = EDGE_CURVE ( 'NONE', #157, #157, #132, .T. ) ;
#69 = PERSON_AND_ORGANIZATION ( #67, #4 ) ;
#70 = CC_DESIGN_PERSON_AND_ORGANIZATION_ASSIGNMENT ( #69, #41, ( #198 ) ) ;
#71 = CC_DESIGN_APPROVAL ( #97, ( #48 ) ) ;
#72 = ADVANCED_FACE ( 'NONE', ( #168 ), #64, .T. ) ;
#73 = CALENDAR_DATE ( 2021, 16, 11 ) ;
#74 = APPROVAL_DATE_TIME ( #172, #97 ) ;
#75 = APPLICATION_CONTEXT ( 'configuration controlled 3d designs of mechanical parts and assemblies' ) ;
#76 = FACE_OUTER_BOUND ( 'NONE', #61, .T. ) ;
#77 = EDGE_LOOP ( 'NONE', ( #126 ) ) ;
#78 = LOCAL_TIME ( 15, 59, 12.00000000000000000, #191 ) ;
#79 = EDGE_LOOP ( 'NONE', ( #129 ) ) ;
#80 = DIRECTION ( 'NONE',  ( 3.491481338843133355E-15, -1.227517819005651059E-16, 1.000000000000000000 ) ) ;
#81 = CARTESIAN_POINT ( 'NONE',  ( 1.326762908760390423E-13, -4.653657836759941941E-15, 38.00000000000000000 ) ) ;
#82 =( GEOMETRIC_REPRESENTATION_CONTEXT ( 3 ) GLOBAL_UNCERTAINTY_ASSIGNED_CONTEXT ( ( #177 ) ) GLOBAL_UNIT_ASSIGNED_CONTEXT ( ( #174, #173, #2 ) ) REPRESENTATION_CONTEXT ( 'NONE', 'WORKASPACE' ) );
#83 = CARTESIAN_POINT ( 'NONE',  ( 2.387657674276903366E-14, -4.404976384520787807E-16, 6.838523373199609345 ) ) ;
#84 = CYLINDRICAL_SURFACE ( 'NONE', #201, 1.499999999999991784 ) ;
#85 = CARTESIAN_POINT ( 'NONE',  ( 0.0000000000000000000, 0.0000000000000000000, 0.0000000000000000000 ) ) ;
#86 = DIRECTION ( 'NONE',  ( 0.0000000000000000000, -1.000000000000000000, 0.0000000000000000000 ) ) ;
#87 = PERSON_AND_ORGANIZATION ( #67, #4 ) ;
#88 = PRODUCT_DEFINITION_SHAPE ( 'NONE', 'NONE',  #30 ) ;
#89 = CC_DESIGN_SECURITY_CLASSIFICATION ( #198, ( #48 ) ) ;
#90 = DATE_AND_TIME ( #142, #128 ) ;
#91 = CALENDAR_DATE ( 2021, 16, 11 ) ;
#92 = CALENDAR_DATE ( 2021, 16, 11 ) ;
#93 = AXIS2_PLACEMENT_3D ( 'NONE', #12, #80, #150 ) ;
#94 = ADVANCED_FACE ( 'NONE', ( #99 ), #153, .F. ) ;
#95 = ORIENTED_EDGE ( 'NONE', *, *, #199, .F. ) ;
#96 = APPROVAL_ROLE ( '' ) ;
#97 = APPROVAL ( #178, 'UNSPECIFIED' ) ;
#98 = CIRCLE ( 'NONE', #180, 0.6500000000000000222 ) ;
#99 = FACE_OUTER_BOUND ( 'NONE', #114, .T. ) ;
#100 = CONICAL_SURFACE ( 'NONE', #140, 1.199999999999993738, 0.7853981633974453924 ) ;
#101 = DIRECTION ( 'NONE',  ( -4.275831445896958607E-31, -1.000000000000000000, -1.224646799147353207E-16 ) ) ;
#102 = MANIFOLD_SOLID_BREP ( 'Corps-Déplacer/Copier1[2]', #106 ) ;
#103 = CARTESIAN_POINT ( 'NONE',  ( 1.134731435124018025E-14, 0.0000000000000000000, 3.249999999999999112 ) ) ;
#104 = CARTESIAN_POINT ( 'NONE',  ( 1.134731435124018025E-14, -3.989432911768364831E-16, 3.249999999999999112 ) ) ;
#105 = EDGE_CURVE ( 'NONE', #133, #133, #98, .T. ) ;
#106 = CLOSED_SHELL ( 'NONE', ( #72, #6, #119 ) ) ;
#107 = APPLICATION_PROTOCOL_DEFINITION ( 'international standard', 'config_control_design', 1994, #188 ) ;
#108 = PERSON_AND_ORGANIZATION_ROLE ( 'creator' ) ;
#109 = AXIS2_PLACEMENT_3D ( 'NONE', #103, #221, #137 ) ;
#110 = PERSON_AND_ORGANIZATION_ROLE ( 'creator' ) ;
#111 = APPROVAL_DATE_TIME ( #149, #46 ) ;
#112 = LOCAL_TIME ( 15, 59, 12.00000000000000000, #176 ) ;
#113 = ORIENTED_EDGE ( 'NONE', *, *, #14, .T. ) ;
#114 = EDGE_LOOP ( 'NONE', ( #197 ) ) ;
#115 = CARTESIAN_POINT ( 'NONE',  ( -5.571612225602344184E-31, -0.6499999999999995781, -1.595773164707344848E-16 ) ) ;
#116 = CARTESIAN_POINT ( 'NONE',  ( -2.785806112801171216E-31, -1.275488267902079408E-32, -7.978865823536721774E-17 ) ) ;
#117 = AXIS2_PLACEMENT_3D ( 'NONE', #156, #55, #86 ) ;
#118 = FACE_OUTER_BOUND ( 'NONE', #181, .T. ) ;
#119 = ADVANCED_FACE ( 'NONE', ( #169 ), #203, .F. ) ;
#120 = DIRECTION ( 'NONE',  ( 0.0000000000000000000, 1.000000000000000000, 0.0000000000000000000 ) ) ;
#121 = DIRECTION ( 'NONE',  ( 3.491481338843133355E-15, -1.224646799147353207E-16, 1.000000000000000000 ) ) ;
#122 = AXIS2_PLACEMENT_3D ( 'NONE', #16, #134, #38 ) ;
#123 = VERTEX_POINT ( 'NONE', #210 ) ;
#124 = MECHANICAL_CONTEXT ( 'NONE', #188, 'mechanical' ) ;
#125 = APPROVAL_STATUS ( 'not_yet_approved' ) ;
#126 = ORIENTED_EDGE ( 'NONE', *, *, #155, .T. ) ;
#127 = CC_DESIGN_APPROVAL ( #46, ( #198 ) ) ;
#128 = LOCAL_TIME ( 15, 59, 12.00000000000000000, #162 ) ;
#129 = ORIENTED_EDGE ( 'NONE', *, *, #19, .F. ) ;
#130 = ORIENTED_EDGE ( 'NONE', *, *, #19, .T. ) ;
#131 = ORIENTED_EDGE ( 'NONE', *, *, #105, .F. ) ;
#132 = CIRCLE ( 'NONE', #122, 1.199999999999993738 ) ;
#133 = VERTEX_POINT ( 'NONE', #66 ) ;
#134 = DIRECTION ( 'NONE',  ( -3.491481338843133355E-15, 1.224646799147353207E-16, -1.000000000000000000 ) ) ;
#135 = PLANE ( 'NONE',  #136 ) ;
#136 = AXIS2_PLACEMENT_3D ( 'NONE', #13, #52, #51 ) ;
#137 = DIRECTION ( 'NONE',  ( -4.365601186994270652E-31, -1.000000000000000000, -1.227517819005651059E-16 ) ) ;
#138 = FACE_OUTER_BOUND ( 'NONE', #10, .T. ) ;
#139 = PERSON_AND_ORGANIZATION_ROLE ( 'design_owner' ) ;
#140 = AXIS2_PLACEMENT_3D ( 'NONE', #81, #54, #120 ) ;
#141 = DATE_TIME_ROLE ( 'creation_date' ) ;
#142 = CALENDAR_DATE ( 2021, 16, 11 ) ;
#143 = DATE_AND_TIME ( #73, #78 ) ;
#144 = APPROVAL_ROLE ( '' ) ;
#145 = ORIENTED_EDGE ( 'NONE', *, *, #68, .T. ) ;
#146 = SHAPE_DEFINITION_REPRESENTATION ( #88, #29 ) ;
#147 = APPROVAL_PERSON_ORGANIZATION ( #24, #211, #144 ) ;
#148 = ADVANCED_FACE ( 'NONE', ( #204 ), #135, .F. ) ;
#149 = DATE_AND_TIME ( #163, #222 ) ;
#150 = DIRECTION ( 'NONE',  ( -4.285855558155653280E-31, -1.000000000000000000, -1.227517819005651305E-16 ) ) ;
#151 = CARTESIAN_POINT ( 'NONE',  ( 1.326762908760390423E-13, 1.199999999999989297, 38.00000000000000000 ) ) ;
#152 = AXIS2_PLACEMENT_3D ( 'NONE', #154, #220, #183 ) ;
#153 = PLANE ( 'NONE',  #28 ) ;
#154 = CARTESIAN_POINT ( 'NONE',  ( 1.316288464743861212E-13, -4.616918432785521081E-15, 37.69999999999999574 ) ) ;
#155 = EDGE_CURVE ( 'NONE', #123, #123, #56, .T. ) ;
#156 = CARTESIAN_POINT ( 'NONE',  ( 1.134731435124018025E-14, -3.989432911768364831E-16, 3.249999999999999112 ) ) ;
#157 = VERTEX_POINT ( 'NONE', #151 ) ;
#158 = PERSON_AND_ORGANIZATION_ROLE ( 'design_supplier' ) ;
#159 = CC_DESIGN_DATE_AND_TIME_ASSIGNMENT ( #143, #141, ( #30 ) ) ;
#160 = AXIS2_PLACEMENT_3D ( 'NONE', #116, #65, #62 ) ;
#161 = PERSON_AND_ORGANIZATION ( #67, #4 ) ;
#162 = COORDINATED_UNIVERSAL_TIME_OFFSET ( 1, 0, .AHEAD. ) ;
#163 = CALENDAR_DATE ( 2021, 16, 11 ) ;
#164 = ORIENTED_EDGE ( 'NONE', *, *, #14, .F. ) ;
#165 = CYLINDRICAL_SURFACE ( 'NONE', #93, 0.6499999999999998002 ) ;
#166 = DIRECTION ( 'NONE',  ( -3.491481338843133355E-15, 1.224646799147353207E-16, -1.000000000000000000 ) ) ;
#167 = APPROVAL_PERSON_ORGANIZATION ( #5, #97, #209 ) ;
#168 = FACE_OUTER_BOUND ( 'NONE', #182, .T. ) ;
#169 = FACE_OUTER_BOUND ( 'NONE', #79, .T. ) ;
#170 = CARTESIAN_POINT ( 'NONE',  ( 2.387657674276903366E-14, 1.499999999999991340, 6.838523373199609345 ) ) ;
#171 = AXIS2_PLACEMENT_3D ( 'NONE', #22, #25, #212 ) ;
#172 = DATE_AND_TIME ( #92, #34 ) ;
#173 =( NAMED_UNIT ( * ) PLANE_ANGLE_UNIT ( ) SI_UNIT ( $, .RADIAN. ) );
#174 =( LENGTH_UNIT ( ) NAMED_UNIT ( * ) SI_UNIT ( .MILLI., .METRE. ) );
#175 = CIRCLE ( 'NONE', #117, 0.6500000000000000222 ) ;
#176 = COORDINATED_UNIVERSAL_TIME_OFFSET ( 1, 0, .AHEAD. ) ;
#177 = UNCERTAINTY_MEASURE_WITH_UNIT (LENGTH_MEASURE( 1.000000000000000082E-05 ), #174, 'distance_accuracy_value', 'NONE');
#178 = APPROVAL_STATUS ( 'not_yet_approved' ) ;
#179 = EDGE_LOOP ( 'NONE', ( #95 ) ) ;
#180 = AXIS2_PLACEMENT_3D ( 'NONE', #104, #35, #17 ) ;
#181 = EDGE_LOOP ( 'NONE', ( #113 ) ) ;
#182 = EDGE_LOOP ( 'NONE', ( #214 ) ) ;
#183 = DIRECTION ( 'NONE',  ( 0.0000000000000000000, 1.000000000000000000, 0.0000000000000000000 ) ) ;
#184 = DIRECTION ( 'NONE',  ( 3.491481338843133355E-15, -1.224646799147353207E-16, 1.000000000000000000 ) ) ;
#185 = VERTEX_POINT ( 'NONE', #170 ) ;
#186 = DIRECTION ( 'NONE',  ( -4.275831445896958607E-31, -1.000000000000000000, -1.224646799147353207E-16 ) ) ;
#187 = CLOSED_SHELL ( 'NONE', ( #23, #213, #94, #192, #148 ) ) ;
#188 = APPLICATION_CONTEXT ( 'configuration controlled 3d designs of mechanical parts and assemblies' ) ;
#189 = PERSON_AND_ORGANIZATION ( #67, #4 ) ;
#190 = CC_DESIGN_PERSON_AND_ORGANIZATION_ASSIGNMENT ( #161, #158, ( #48 ) ) ;
#191 = COORDINATED_UNIVERSAL_TIME_OFFSET ( 1, 0, .AHEAD. ) ;
#192 = ADVANCED_FACE ( 'NONE', ( #207, #118 ), #50, .F. ) ;
#193 = VERTEX_POINT ( 'NONE', #194 ) ;
#194 = CARTESIAN_POINT ( 'NONE',  ( 1.134731435124018025E-14, -0.6500000000000003553, 3.249999999999999112 ) ) ;
#195 = DATE_AND_TIME ( #91, #112 ) ;
#196 = CC_DESIGN_PERSON_AND_ORGANIZATION_ASSIGNMENT ( #42, #139, ( #216 ) ) ;
#197 = ORIENTED_EDGE ( 'NONE', *, *, #68, .F. ) ;
#198 = SECURITY_CLASSIFICATION ( '', '', #1 ) ;
#199 = EDGE_CURVE ( 'NONE', #193, #193, #175, .T. ) ;
#200 = EDGE_LOOP ( 'NONE', ( #202 ) ) ;
#201 = AXIS2_PLACEMENT_3D ( 'NONE', #85, #33, #53 ) ;
#202 = ORIENTED_EDGE ( 'NONE', *, *, #155, .F. ) ;
#203 = PLANE ( 'NONE',  #60 ) ;
#204 = FACE_OUTER_BOUND ( 'NONE', #179, .T. ) ;
#205 = DIRECTION ( 'NONE',  ( 4.275831445896958607E-31, 1.000000000000000000, 1.224646799147353207E-16 ) ) ;
#206 = FACE_BOUND ( 'NONE', #31, .T. ) ;
#207 = FACE_OUTER_BOUND ( 'NONE', #11, .T. ) ;
#208 = DATE_TIME_ROLE ( 'classification_date' ) ;
#209 = APPROVAL_ROLE ( '' ) ;
#210 = CARTESIAN_POINT ( 'NONE',  ( 1.316288464743861212E-13, 1.499999999999989120, 37.69999999999999574 ) ) ;
#211 = APPROVAL ( #125, 'UNSPECIFIED' ) ;
#212 = DIRECTION ( 'NONE',  ( 1.000000000000000000, 0.0000000000000000000, 0.0000000000000000000 ) ) ;
#213 = ADVANCED_FACE ( 'NONE', ( #218, #206 ), #100, .T. ) ;
#214 = ORIENTED_EDGE ( 'NONE', *, *, #105, .T. ) ;
#215 = CC_DESIGN_DATE_AND_TIME_ASSIGNMENT ( #90, #208, ( #198 ) ) ;
#216 = PRODUCT ( '964130', '964130', '', ( #124 ) ) ;
#217 = CIRCLE ( 'NONE', #160, 0.6499999999999995781 ) ;
#218 = FACE_OUTER_BOUND ( 'NONE', #200, .T. ) ;
#219 = DIRECTION ( 'NONE',  ( -3.491481338843133355E-15, 1.227517819005651059E-16, -1.000000000000000000 ) ) ;
#220 = DIRECTION ( 'NONE',  ( -3.491481338843133355E-15, 1.224646799147353207E-16, -1.000000000000000000 ) ) ;
#221 = DIRECTION ( 'NONE',  ( 3.491481338843133355E-15, -1.227517819005651059E-16, 1.000000000000000000 ) ) ;
#222 = LOCAL_TIME ( 15, 59, 12.00000000000000000, #45 ) ;
#223 = CARTESIAN_POINT ( 'NONE',  ( 1.326762908760390423E-13, 8.998558695971030697E-33, 38.00000000000000000 ) ) ;
ENDSEC;
END-ISO-10303-21;
