ISO-10303-21;
HEADER;
FILE_DESCRIPTION (( 'STEP AP203' ),
    '1' );
FILE_NAME ('964129.step',
    '2021-11-16T14:59:11',
    ( '' ),
    ( '' ),
    'SwSTEP 2.0',
    'SolidWorks 2019',
    '' );
FILE_SCHEMA (( 'CONFIG_CONTROL_DESIGN' ));
ENDSEC;

DATA;
#1 = CARTESIAN_POINT ( 'NONE',  ( 1.047444401652939691E-14, 0.0000000000000000000, 2.999999999999999112 ) ) ;
#2 = FACE_OUTER_BOUND ( 'NONE', #20, .T. ) ;
#3 = FACE_OUTER_BOUND ( 'NONE', #6, .T. ) ;
#4 = CARTESIAN_POINT ( 'NONE',  ( -2.571513334893390566E-31, -1.350828267700898226E-32, -7.365106914033900435E-17 ) ) ;
#5 = APPROVAL ( #142, 'UNSPECIFIED' ) ;
#6 = EDGE_LOOP ( 'NONE', ( #122 ) ) ;
#7 = AXIS2_PLACEMENT_3D ( 'NONE', #51, #143, #18 ) ;
#8 = FACE_OUTER_BOUND ( 'NONE', #180, .T. ) ;
#9 = DIRECTION ( 'NONE',  ( -3.491481338843133355E-15, 1.227517819005651059E-16, -1.000000000000000000 ) ) ;
#10 = PERSON_AND_ORGANIZATION_ROLE ( 'classification_officer' ) ;
#11 = LOCAL_TIME ( 15, 59, 11.00000000000000000, #65 ) ;
#12 = APPROVAL_STATUS ( 'not_yet_approved' ) ;
#13 = PERSON_AND_ORGANIZATION ( #17, #32 ) ;
#14 = EDGE_CURVE ( 'NONE', #201, #201, #195, .T. ) ;
#15 = AXIS2_PLACEMENT_3D ( 'NONE', #70, #107, #87 ) ;
#16 = FACE_OUTER_BOUND ( 'NONE', #69, .T. ) ;
#17 = PERSON ( 'UNSPECIFIED', 'UNSPECIFIED', 'UNSPECIFIED', ('UNSPECIFIED'), ('UNSPECIFIED'), ('UNSPECIFIED') ) ;
#18 = DIRECTION ( 'NONE',  ( 0.0000000000000000000, 1.000000000000000000, 0.0000000000000000000 ) ) ;
#19 = CC_DESIGN_PERSON_AND_ORGANIZATION_ASSIGNMENT ( #93, #81, ( #206 ) ) ;
#20 = EDGE_LOOP ( 'NONE', ( #176 ) ) ;
#21 = DIRECTION ( 'NONE',  ( -3.491481338843133355E-15, 1.224646799147353207E-16, -1.000000000000000000 ) ) ;
#22 = DIRECTION ( 'NONE',  ( 0.0000000000000000000, -1.000000000000000000, 0.0000000000000000000 ) ) ;
#23 = AXIS2_PLACEMENT_3D ( 'NONE', #104, #150, #68 ) ;
#24 = EDGE_LOOP ( 'NONE', ( #157 ) ) ;
#25 = ORIENTED_EDGE ( 'NONE', *, *, #92, .T. ) ;
#26 = CARTESIAN_POINT ( 'NONE',  ( -1.282754905350004587E-30, 4.499298539707956128E-32, -3.673956068672651857E-16 ) ) ;
#27 = AXIS2_PLACEMENT_3D ( 'NONE', #67, #21, #214 ) ;
#28 = MECHANICAL_CONTEXT ( 'NONE', #102, 'mechanical' ) ;
#29 = CARTESIAN_POINT ( 'NONE',  ( 2.334565631210068361E-14, 1.499999999999991340, 6.686461718233335461 ) ) ;
#30 = CALENDAR_DATE ( 2021, 16, 11 ) ;
#31 = MANIFOLD_SOLID_BREP ( 'Corps-Déplacer/Copier1[2]', #205 ) ;
#32 = ORGANIZATION ( 'UNSPECIFIED', 'UNSPECIFIED', '' ) ;
#33 = DATE_AND_TIME ( #127, #41 ) ;
#34 = PERSON_AND_ORGANIZATION ( #17, #32 ) ;
#35 = EDGE_CURVE ( 'NONE', #46, #46, #187, .T. ) ;
#36 = APPROVAL_PERSON_ORGANIZATION ( #34, #147, #96 ) ;
#37 = AXIS2_PLACEMENT_3D ( 'NONE', #138, #211, #59 ) ;
#38 = PLANE ( 'NONE',  #145 ) ;
#39 = DIRECTION ( 'NONE',  ( -3.491481338843133355E-15, 1.224646799147353207E-16, -1.000000000000000000 ) ) ;
#40 = CARTESIAN_POINT ( 'NONE',  ( 2.334565631210068361E-14, -4.525197448213610197E-16, 6.686461718233335461 ) ) ;
#41 = LOCAL_TIME ( 15, 59, 11.00000000000000000, #63 ) ;
#42 = APPLICATION_CONTEXT ( 'configuration controlled 3d designs of mechanical parts and assemblies' ) ;
#43 = EDGE_LOOP ( 'NONE', ( #178 ) ) ;
#44 = DIRECTION ( 'NONE',  ( 1.000000000000000000, 0.0000000000000000000, 0.0000000000000000000 ) ) ;
#45 = PRODUCT ( '964129', '964129', '', ( #28 ) ) ;
#46 = VERTEX_POINT ( 'NONE', #174 ) ;
#47 =( LENGTH_UNIT ( ) NAMED_UNIT ( * ) SI_UNIT ( .MILLI., .METRE. ) );
#48 = SECURITY_CLASSIFICATION_LEVEL ( 'unclassified' ) ;
#49 = APPLICATION_PROTOCOL_DEFINITION ( 'international standard', 'config_control_design', 1994, #42 ) ;
#50 = CIRCLE ( 'NONE', #126, 1.499999999999991784 ) ;
#51 = CARTESIAN_POINT ( 'NONE',  ( 1.316288464743861212E-13, -4.616918432785521081E-15, 37.69999999999999574 ) ) ;
#52 = APPROVAL_PERSON_ORGANIZATION ( #218, #5, #220 ) ;
#53 = DIRECTION ( 'NONE',  ( -4.275831445896958607E-31, -1.000000000000000000, -1.224646799147353207E-16 ) ) ;
#54 = ORIENTED_EDGE ( 'NONE', *, *, #97, .F. ) ;
#55 = ADVANCED_FACE ( 'NONE', ( #120 ), #90, .F. ) ;
#56 = VERTEX_POINT ( 'NONE', #124 ) ;
#57 = DIRECTION ( 'NONE',  ( 3.491481338843133355E-15, -1.227517819005651059E-16, 1.000000000000000000 ) ) ;
#58 = DESIGN_CONTEXT ( 'detailed design', #42, 'design' ) ;
#59 = DIRECTION ( 'NONE',  ( 0.0000000000000000000, -1.000000000000000000, 0.0000000000000000000 ) ) ;
#60 = CARTESIAN_POINT ( 'NONE',  ( -5.143026669786782009E-31, -0.5999999999999998668, -1.473021382806780580E-16 ) ) ;
#61 = SHAPE_DEFINITION_REPRESENTATION ( #139, #158 ) ;
#62 = CARTESIAN_POINT ( 'NONE',  ( 1.316288464743861212E-13, 1.499999999999989120, 37.69999999999999574 ) ) ;
#63 = COORDINATED_UNIVERSAL_TIME_OFFSET ( 1, 0, .AHEAD. ) ;
#64 = DATE_AND_TIME ( #215, #11 ) ;
#65 = COORDINATED_UNIVERSAL_TIME_OFFSET ( 1, 0, .AHEAD. ) ;
#66 = CC_DESIGN_PERSON_AND_ORGANIZATION_ASSIGNMENT ( #13, #146, ( #185 ) ) ;
#67 = CARTESIAN_POINT ( 'NONE',  ( 1.326762908760390423E-13, -4.653657836759941941E-15, 38.00000000000000000 ) ) ;
#68 = DIRECTION ( 'NONE',  ( -4.285855558155654155E-31, -1.000000000000000000, -1.227517819005650812E-16 ) ) ;
#69 = EDGE_LOOP ( 'NONE', ( #110 ) ) ;
#70 = CARTESIAN_POINT ( 'NONE',  ( 1.326762908760390423E-13, -4.653657836759941941E-15, 38.00000000000000000 ) ) ;
#71 = ORIENTED_EDGE ( 'NONE', *, *, #92, .F. ) ;
#72 = FACE_OUTER_BOUND ( 'NONE', #24, .T. ) ;
#73 = AXIS2_PLACEMENT_3D ( 'NONE', #210, #141, #172 ) ;
#74 = ADVANCED_FACE ( 'NONE', ( #8, #76 ), #125, .T. ) ;
#75 = EDGE_LOOP ( 'NONE', ( #181 ) ) ;
#76 = FACE_OUTER_BOUND ( 'NONE', #85, .T. ) ;
#77 = DIRECTION ( 'NONE',  ( 0.0000000000000000000, 1.000000000000000000, 0.0000000000000000000 ) ) ;
#78 = COORDINATED_UNIVERSAL_TIME_OFFSET ( 1, 0, .AHEAD. ) ;
#79 = LOCAL_TIME ( 15, 59, 11.00000000000000000, #112 ) ;
#80 = DATE_AND_TIME ( #164, #149 ) ;
#81 = PERSON_AND_ORGANIZATION_ROLE ( 'creator' ) ;
#82 = CC_DESIGN_APPROVAL ( #5, ( #206 ) ) ;
#83 = CIRCLE ( 'NONE', #103, 0.6000000000000001998 ) ;
#84 = FACE_OUTER_BOUND ( 'NONE', #134, .T. ) ;
#85 = EDGE_LOOP ( 'NONE', ( #71 ) ) ;
#86 = CARTESIAN_POINT ( 'NONE',  ( 1.047444401652940007E-14, 1.124819836996384858E-32, 3.000000000000000000 ) ) ;
#87 = DIRECTION ( 'NONE',  ( 0.0000000000000000000, 1.000000000000000000, 0.0000000000000000000 ) ) ;
#88 = APPROVAL ( #167, 'UNSPECIFIED' ) ;
#89 =( NAMED_UNIT ( * ) PLANE_ANGLE_UNIT ( ) SI_UNIT ( $, .RADIAN. ) );
#90 = PLANE ( 'NONE',  #160 ) ;
#91 = PLANE ( 'NONE',  #179 ) ;
#92 = EDGE_CURVE ( 'NONE', #56, #56, #83, .T. ) ;
#93 = PERSON_AND_ORGANIZATION ( #17, #32 ) ;
#94 = APPROVAL_ROLE ( '' ) ;
#95 = CC_DESIGN_APPROVAL ( #147, ( #185 ) ) ;
#96 = APPROVAL_ROLE ( '' ) ;
#97 = EDGE_CURVE ( 'NONE', #199, #199, #113, .T. ) ;
#98 = DATE_TIME_ROLE ( 'creation_date' ) ;
#99 = CIRCLE ( 'NONE', #7, 1.499999999999993783 ) ;
#100 = CLOSED_SHELL ( 'NONE', ( #222, #212, #197, #175, #165 ) ) ;
#101 = CC_DESIGN_PERSON_AND_ORGANIZATION_ASSIGNMENT ( #184, #10, ( #130 ) ) ;
#102 = APPLICATION_CONTEXT ( 'configuration controlled 3d designs of mechanical parts and assemblies' ) ;
#103 = AXIS2_PLACEMENT_3D ( 'NONE', #131, #177, #22 ) ;
#104 = CARTESIAN_POINT ( 'NONE',  ( -6.413731847436034514E-31, 0.0000000000000000000, -1.836965810494968570E-16 ) ) ;
#105 = DIRECTION ( 'NONE',  ( 3.491481338843133355E-15, -1.224646799147353207E-16, 1.000000000000000000 ) ) ;
#106 = ORIENTED_EDGE ( 'NONE', *, *, #14, .T. ) ;
#107 = DIRECTION ( 'NONE',  ( -3.491481338843133355E-15, 1.224646799147353207E-16, -1.000000000000000000 ) ) ;
#108 = AXIS2_PLACEMENT_3D ( 'NONE', #4, #57, #119 ) ;
#109 = APPLICATION_PROTOCOL_DEFINITION ( 'international standard', 'config_control_design', 1994, #102 ) ;
#110 = ORIENTED_EDGE ( 'NONE', *, *, #132, .F. ) ;
#111 = VERTEX_POINT ( 'NONE', #29 ) ;
#112 = COORDINATED_UNIVERSAL_TIME_OFFSET ( 1, 0, .AHEAD. ) ;
#113 = CIRCLE ( 'NONE', #27, 1.199999999999993738 ) ;
#114 = ADVANCED_FACE ( 'NONE', ( #84 ), #38, .T. ) ;
#115 = EDGE_CURVE ( 'NONE', #111, #111, #50, .T. ) ;
#116 = DIRECTION ( 'NONE',  ( 4.275831445896958607E-31, 1.000000000000000000, 1.224646799147353207E-16 ) ) ;
#117 = ORIENTED_EDGE ( 'NONE', *, *, #14, .F. ) ;
#118 = CARTESIAN_POINT ( 'NONE',  ( 1.326762908760390423E-13, 1.199999999999989297, 38.00000000000000000 ) ) ;
#119 = DIRECTION ( 'NONE',  ( -4.285855558155653280E-31, -1.000000000000000000, -1.227517819005651059E-16 ) ) ;
#120 = FACE_OUTER_BOUND ( 'NONE', #193, .T. ) ;
#121 = APPROVAL_PERSON_ORGANIZATION ( #168, #88, #94 ) ;
#122 = ORIENTED_EDGE ( 'NONE', *, *, #132, .T. ) ;
#123 = CARTESIAN_POINT ( 'NONE',  ( 0.0000000000000000000, 0.0000000000000000000, 0.0000000000000000000 ) ) ;
#124 = CARTESIAN_POINT ( 'NONE',  ( 1.047444401652939691E-14, -0.6000000000000005329, 2.999999999999999112 ) ) ;
#125 = CYLINDRICAL_SURFACE ( 'NONE', #23, 0.6000000000000000888 ) ;
#126 = AXIS2_PLACEMENT_3D ( 'NONE', #40, #9, #77 ) ;
#127 = CALENDAR_DATE ( 2021, 16, 11 ) ;
#128 = CALENDAR_DATE ( 2021, 16, 11 ) ;
#129 = PERSON_AND_ORGANIZATION ( #17, #32 ) ;
#130 = SECURITY_CLASSIFICATION ( '', '', #48 ) ;
#131 = CARTESIAN_POINT ( 'NONE',  ( 1.047444401652939691E-14, -3.682553457016952190E-16, 2.999999999999999112 ) ) ;
#132 = EDGE_CURVE ( 'NONE', #162, #162, #99, .T. ) ;
#133 = DIRECTION ( 'NONE',  ( -4.365841384671495503E-31, -1.000000000000000000, -1.227517819005651059E-16 ) ) ;
#134 = EDGE_LOOP ( 'NONE', ( #25 ) ) ;
#135 = FACE_OUTER_BOUND ( 'NONE', #136, .T. ) ;
#136 = EDGE_LOOP ( 'NONE', ( #54 ) ) ;
#137 = CC_DESIGN_DATE_AND_TIME_ASSIGNMENT ( #163, #98, ( #185 ) ) ;
#138 = CARTESIAN_POINT ( 'NONE',  ( 1.047444401652939691E-14, -3.682553457016952190E-16, 2.999999999999999112 ) ) ;
#139 = PRODUCT_DEFINITION_SHAPE ( 'NONE', 'NONE',  #185 ) ;
#140 = TOROIDAL_SURFACE ( 'NONE', #200, 8.599999999999999645, 8.000000000000000000 ) ;
#141 = DIRECTION ( 'NONE',  ( -3.491481338843133355E-15, 1.224646799147353207E-16, -1.000000000000000000 ) ) ;
#142 = APPROVAL_STATUS ( 'not_yet_approved' ) ;
#143 = DIRECTION ( 'NONE',  ( -3.491481338843133355E-15, 1.224646799147353207E-16, -1.000000000000000000 ) ) ;
#144 = COORDINATED_UNIVERSAL_TIME_OFFSET ( 1, 0, .AHEAD. ) ;
#145 = AXIS2_PLACEMENT_3D ( 'NONE', #194, #207, #173 ) ;
#146 = PERSON_AND_ORGANIZATION_ROLE ( 'creator' ) ;
#147 = APPROVAL ( #12, 'UNSPECIFIED' ) ;
#148 = APPROVAL_DATE_TIME ( #64, #5 ) ;
#149 = LOCAL_TIME ( 15, 59, 11.00000000000000000, #144 ) ;
#150 = DIRECTION ( 'NONE',  ( 3.491481338843133355E-15, -1.227517819005651059E-16, 1.000000000000000000 ) ) ;
#151 = PRODUCT_RELATED_PRODUCT_CATEGORY ( 'detail', '', ( #45 ) ) ;
#152 = FACE_OUTER_BOUND ( 'NONE', #75, .T. ) ;
#153 = EDGE_LOOP ( 'NONE', ( #196 ) ) ;
#154 = UNCERTAINTY_MEASURE_WITH_UNIT (LENGTH_MEASURE( 1.000000000000000082E-05 ), #47, 'distance_accuracy_value', 'NONE');
#155 = FACE_OUTER_BOUND ( 'NONE', #43, .T. ) ;
#156 = FACE_BOUND ( 'NONE', #153, .T. ) ;
#157 = ORIENTED_EDGE ( 'NONE', *, *, #115, .F. ) ;
#158 = ADVANCED_BREP_SHAPE_REPRESENTATION ( '964129', ( #171, #31, #221 ), #191 ) ;
#159 =( NAMED_UNIT ( * ) SI_UNIT ( $, .STERADIAN. ) SOLID_ANGLE_UNIT ( ) );
#160 = AXIS2_PLACEMENT_3D ( 'NONE', #26, #182, #161 ) ;
#161 = DIRECTION ( 'NONE',  ( -4.275831445896958607E-31, -1.000000000000000000, -1.224646799147353207E-16 ) ) ;
#162 = VERTEX_POINT ( 'NONE', #62 ) ;
#163 = DATE_AND_TIME ( #30, #79 ) ;
#164 = CALENDAR_DATE ( 2021, 16, 11 ) ;
#165 = ADVANCED_FACE ( 'NONE', ( #152 ), #183, .F. ) ;
#166 = CC_DESIGN_SECURITY_CLASSIFICATION ( #130, ( #206 ) ) ;
#167 = APPROVAL_STATUS ( 'not_yet_approved' ) ;
#168 = PERSON_AND_ORGANIZATION ( #17, #32 ) ;
#169 = PERSON_AND_ORGANIZATION_ROLE ( 'design_supplier' ) ;
#170 = CC_DESIGN_DATE_AND_TIME_ASSIGNMENT ( #216, #188, ( #130 ) ) ;
#171 = MANIFOLD_SOLID_BREP ( 'Corps-Déplacer/Copier1[1]', #100 ) ;
#172 = DIRECTION ( 'NONE',  ( 4.275831445896958607E-31, 1.000000000000000000, 1.224646799147353207E-16 ) ) ;
#173 = DIRECTION ( 'NONE',  ( -4.275831445896958607E-31, -1.000000000000000000, -1.224646799147353207E-16 ) ) ;
#174 = CARTESIAN_POINT ( 'NONE',  ( 1.047444401652939691E-14, -0.6000000000000005329, 2.999999999999999112 ) ) ;
#175 = ADVANCED_FACE ( 'NONE', ( #155, #2 ), #140, .F. ) ;
#176 = ORIENTED_EDGE ( 'NONE', *, *, #115, .T. ) ;
#177 = DIRECTION ( 'NONE',  ( 3.491481338843133355E-15, -1.227517819005651059E-16, 1.000000000000000000 ) ) ;
#178 = ORIENTED_EDGE ( 'NONE', *, *, #35, .T. ) ;
#179 = AXIS2_PLACEMENT_3D ( 'NONE', #208, #39, #116 ) ;
#180 = EDGE_LOOP ( 'NONE', ( #106 ) ) ;
#181 = ORIENTED_EDGE ( 'NONE', *, *, #35, .F. ) ;
#182 = DIRECTION ( 'NONE',  ( 3.491481338843133355E-15, -1.224646799147353207E-16, 1.000000000000000000 ) ) ;
#183 = PLANE ( 'NONE',  #213 ) ;
#184 = PERSON_AND_ORGANIZATION ( #17, #32 ) ;
#185 = PRODUCT_DEFINITION ( 'UNKNOWN', '', #206, #58 ) ;
#186 = PERSON_AND_ORGANIZATION_ROLE ( 'design_owner' ) ;
#187 = CIRCLE ( 'NONE', #37, 0.6000000000000001998 ) ;
#188 = DATE_TIME_ROLE ( 'classification_date' ) ;
#189 = CC_DESIGN_PERSON_AND_ORGANIZATION_ASSIGNMENT ( #129, #169, ( #206 ) ) ;
#190 = CYLINDRICAL_SURFACE ( 'NONE', #73, 1.499999999999991784 ) ;
#191 =( GEOMETRIC_REPRESENTATION_CONTEXT ( 3 ) GLOBAL_UNCERTAINTY_ASSIGNED_CONTEXT ( ( #154 ) ) GLOBAL_UNIT_ASSIGNED_CONTEXT ( ( #47, #89, #159 ) ) REPRESENTATION_CONTEXT ( 'NONE', 'WORKASPACE' ) );
#192 = DIRECTION ( 'NONE',  ( 3.491481338843133355E-15, -1.227517819005651059E-16, 1.000000000000000000 ) ) ;
#193 = EDGE_LOOP ( 'NONE', ( #117 ) ) ;
#194 = CARTESIAN_POINT ( 'NONE',  ( 1.047444401652940007E-14, 1.124819836996384858E-32, 3.000000000000000000 ) ) ;
#195 = CIRCLE ( 'NONE', #108, 0.5999999999999998668 ) ;
#196 = ORIENTED_EDGE ( 'NONE', *, *, #97, .T. ) ;
#197 = ADVANCED_FACE ( 'NONE', ( #135 ), #91, .F. ) ;
#198 = DIRECTION ( 'NONE',  ( 0.0000000000000000000, 0.0000000000000000000, 1.000000000000000000 ) ) ;
#199 = VERTEX_POINT ( 'NONE', #118 ) ;
#200 = AXIS2_PLACEMENT_3D ( 'NONE', #1, #192, #133 ) ;
#201 = VERTEX_POINT ( 'NONE', #60 ) ;
#202 = CC_DESIGN_PERSON_AND_ORGANIZATION_ASSIGNMENT ( #219, #186, ( #45 ) ) ;
#203 = APPROVAL_DATE_TIME ( #80, #147 ) ;
#204 = APPROVAL_DATE_TIME ( #33, #88 ) ;
#205 = CLOSED_SHELL ( 'NONE', ( #114, #74, #55 ) ) ;
#206 = PRODUCT_DEFINITION_FORMATION_WITH_SPECIFIED_SOURCE ( 'ANY', '', #45, .NOT_KNOWN. ) ;
#207 = DIRECTION ( 'NONE',  ( 3.491481338843133355E-15, -1.224646799147353207E-16, 1.000000000000000000 ) ) ;
#208 = CARTESIAN_POINT ( 'NONE',  ( 1.326762908760390423E-13, 8.998558695971030697E-33, 38.00000000000000000 ) ) ;
#209 = LOCAL_TIME ( 15, 59, 11.00000000000000000, #78 ) ;
#210 = CARTESIAN_POINT ( 'NONE',  ( 0.0000000000000000000, 0.0000000000000000000, 0.0000000000000000000 ) ) ;
#211 = DIRECTION ( 'NONE',  ( 3.491481338843133355E-15, -1.227517819005651059E-16, 1.000000000000000000 ) ) ;
#212 = ADVANCED_FACE ( 'NONE', ( #16, #156 ), #217, .T. ) ;
#213 = AXIS2_PLACEMENT_3D ( 'NONE', #86, #105, #53 ) ;
#214 = DIRECTION ( 'NONE',  ( 0.0000000000000000000, 1.000000000000000000, 0.0000000000000000000 ) ) ;
#215 = CALENDAR_DATE ( 2021, 16, 11 ) ;
#216 = DATE_AND_TIME ( #128, #209 ) ;
#217 = CONICAL_SURFACE ( 'NONE', #15, 1.199999999999993738, 0.7853981633974453924 ) ;
#218 = PERSON_AND_ORGANIZATION ( #17, #32 ) ;
#219 = PERSON_AND_ORGANIZATION ( #17, #32 ) ;
#220 = APPROVAL_ROLE ( '' ) ;
#221 = AXIS2_PLACEMENT_3D ( 'NONE', #123, #198, #44 ) ;
#222 = ADVANCED_FACE ( 'NONE', ( #3, #72 ), #190, .T. ) ;
#223 = CC_DESIGN_APPROVAL ( #88, ( #130 ) ) ;
ENDSEC;
END-ISO-10303-21;
