ISO-10303-21;
HEADER;
FILE_DESCRIPTION (( 'STEP AP203' ),
    '1' );
FILE_NAME ('964128.step',
    '2021-11-16T14:59:10',
    ( '' ),
    ( '' ),
    'SwSTEP 2.0',
    'SolidWorks 2019',
    '' );
FILE_SCHEMA (( 'CONFIG_CONTROL_DESIGN' ));
ENDSEC;

DATA;
#1 = APPLICATION_CONTEXT ( 'configuration controlled 3d designs of mechanical parts and assemblies' ) ;
#2 = CARTESIAN_POINT ( 'NONE',  ( 1.140889741404387311E-14, -3.984044658349246233E-16, 3.267638090205028600 ) ) ;
#3 = APPROVAL ( #178, 'UNSPECIFIED' ) ;
#4 = DIRECTION ( 'NONE',  ( -4.275831445896958607E-31, -1.000000000000000000, -1.224646799147353207E-16 ) ) ;
#5 =( LENGTH_UNIT ( ) NAMED_UNIT ( * ) SI_UNIT ( .MILLI., .METRE. ) );
#6 = UNCERTAINTY_MEASURE_WITH_UNIT (LENGTH_MEASURE( 1.000000000000000082E-05 ), #5, 'distance_accuracy_value', 'NONE');
#7 = PERSON_AND_ORGANIZATION ( #140, #58 ) ;
#8 = CC_DESIGN_APPROVAL ( #3, ( #63 ) ) ;
#9 = DIRECTION ( 'NONE',  ( -4.275831445896958607E-31, -1.000000000000000000, -1.224646799147353207E-16 ) ) ;
#10 = ADVANCED_FACE ( 'NONE', ( #50, #119 ), #25, .T. ) ;
#11 = PERSON_AND_ORGANIZATION_ROLE ( 'classification_officer' ) ;
#12 = ORIENTED_EDGE ( 'NONE', *, *, #77, .F. ) ;
#13 = CLOSED_SHELL ( 'NONE', ( #167, #216, #46 ) ) ;
#14 = ORIENTED_EDGE ( 'NONE', *, *, #198, .T. ) ;
#15 = AXIS2_PLACEMENT_3D ( 'NONE', #190, #239, #189 ) ;
#16 = CARTESIAN_POINT ( 'NONE',  ( 9.601573681818616727E-15, -3.352918073547423982E-16, 2.750000000000000000 ) ) ;
#17 = DIRECTION ( 'NONE',  ( -3.491481338843133355E-15, 1.219242935835426903E-16, -1.000000000000000000 ) ) ;
#18 = DIRECTION ( 'NONE',  ( 3.491481338843133355E-15, -1.224646799147353207E-16, 1.000000000000000000 ) ) ;
#19 = CONICAL_SURFACE ( 'NONE', #146, 2.499999999999992895, 0.2617993877991430240 ) ;
#20 = FACE_OUTER_BOUND ( 'NONE', #233, .T. ) ;
#21 = DIRECTION ( 'NONE',  ( 3.491481338843133355E-15, -1.219242935835426903E-16, 1.000000000000000000 ) ) ;
#22 = PERSON_AND_ORGANIZATION ( #140, #58 ) ;
#23 = VERTEX_POINT ( 'NONE', #138 ) ;
#24 = AXIS2_PLACEMENT_3D ( 'NONE', #210, #170, #192 ) ;
#25 = CONICAL_SURFACE ( 'NONE', #69, 1.199999999999993738, 0.7853981633974453924 ) ;
#26 = DATE_TIME_ROLE ( 'creation_date' ) ;
#27 = VERTEX_POINT ( 'NONE', #60 ) ;
#28 = PRODUCT ( '964128', '964128', '', ( #42 ) ) ;
#29 = AXIS2_PLACEMENT_3D ( 'NONE', #82, #135, #195 ) ;
#30 = EDGE_LOOP ( 'NONE', ( #123 ) ) ;
#31 = EDGE_LOOP ( 'NONE', ( #182 ) ) ;
#32 = LOCAL_TIME ( 15, 59, 10.00000000000000000, #96 ) ;
#33 = DIRECTION ( 'NONE',  ( -3.491481338843133355E-15, 1.224646799147353207E-16, -1.000000000000000000 ) ) ;
#34 = CC_DESIGN_PERSON_AND_ORGANIZATION_ASSIGNMENT ( #125, #99, ( #40 ) ) ;
#35 = SECURITY_CLASSIFICATION ( '', '', #85 ) ;
#36 = DIRECTION ( 'NONE',  ( -3.491481338843133355E-15, 1.224646799147353207E-16, -1.000000000000000000 ) ) ;
#37 = FACE_OUTER_BOUND ( 'NONE', #143, .T. ) ;
#38 = ADVANCED_FACE ( 'NONE', ( #54, #20 ), #148, .T. ) ;
#39 = DIRECTION ( 'NONE',  ( 3.491481338843133355E-15, -1.219242935835426903E-16, 1.000000000000000000 ) ) ;
#40 = PRODUCT_DEFINITION_FORMATION_WITH_SPECIFIED_SOURCE ( 'ANY', '', #28, .NOT_KNOWN. ) ;
#41 = DATE_AND_TIME ( #43, #109 ) ;
#42 = MECHANICAL_CONTEXT ( 'NONE', #1, 'mechanical' ) ;
#43 = CALENDAR_DATE ( 2021, 16, 11 ) ;
#44 =( NAMED_UNIT ( * ) PLANE_ANGLE_UNIT ( ) SI_UNIT ( $, .RADIAN. ) );
#45 = MANIFOLD_SOLID_BREP ( 'Corps-Déplacer/Copier1[1]', #59 ) ;
#46 = ADVANCED_FACE ( 'NONE', ( #151 ), #241, .F. ) ;
#47 = APPROVAL_PERSON_ORGANIZATION ( #7, #139, #229 ) ;
#48 = APPROVAL_STATUS ( 'not_yet_approved' ) ;
#49 = APPROVAL_DATE_TIME ( #204, #203 ) ;
#50 = FACE_OUTER_BOUND ( 'NONE', #179, .T. ) ;
#51 = CALENDAR_DATE ( 2021, 16, 11 ) ;
#52 = ORIENTED_EDGE ( 'NONE', *, *, #120, .F. ) ;
#53 = CC_DESIGN_PERSON_AND_ORGANIZATION_ASSIGNMENT ( #231, #118, ( #40 ) ) ;
#54 = FACE_OUTER_BOUND ( 'NONE', #30, .T. ) ;
#55 = FACE_OUTER_BOUND ( 'NONE', #31, .T. ) ;
#56 = CARTESIAN_POINT ( 'NONE',  ( 3.593015037186641436E-14, -1.254699016633379927E-15, 10.29080406993425356 ) ) ;
#57 = FACE_OUTER_BOUND ( 'NONE', #142, .T. ) ;
#58 = ORGANIZATION ( 'UNSPECIFIED', 'UNSPECIFIED', '' ) ;
#59 = CLOSED_SHELL ( 'NONE', ( #38, #10, #106, #159, #150, #236 ) ) ;
#60 = CARTESIAN_POINT ( 'NONE',  ( 1.326762908760390423E-13, 1.199999999999989297, 38.00000000000000000 ) ) ;
#61 = COORDINATED_UNIVERSAL_TIME_OFFSET ( 1, 0, .AHEAD. ) ;
#62 = COORDINATED_UNIVERSAL_TIME_OFFSET ( 1, 0, .AHEAD. ) ;
#63 = PRODUCT_DEFINITION ( 'UNKNOWN', '', #40, #110 ) ;
#64 = EDGE_LOOP ( 'NONE', ( #66 ) ) ;
#65 = APPROVAL_PERSON_ORGANIZATION ( #207, #203, #162 ) ;
#66 = ORIENTED_EDGE ( 'NONE', *, *, #84, .F. ) ;
#67 = EDGE_LOOP ( 'NONE', ( #52 ) ) ;
#68 = EDGE_CURVE ( 'NONE', #199, #199, #115, .T. ) ;
#69 = AXIS2_PLACEMENT_3D ( 'NONE', #90, #209, #104 ) ;
#70 = DIRECTION ( 'NONE',  ( 0.0000000000000000000, 1.000000000000000000, 0.0000000000000000000 ) ) ;
#71 = DIRECTION ( 'NONE',  ( 3.491481338843133355E-15, -1.219242935835426903E-16, 1.000000000000000000 ) ) ;
#72 = CARTESIAN_POINT ( 'NONE',  ( 9.601573681818616727E-15, 1.124819836996384858E-32, 2.750000000000000000 ) ) ;
#73 = DIRECTION ( 'NONE',  ( 0.0000000000000000000, -1.000000000000000000, 0.0000000000000000000 ) ) ;
#74 = CARTESIAN_POINT ( 'NONE',  ( 1.316288464743861212E-13, -4.616918432785521081E-15, 37.69999999999999574 ) ) ;
#75 = LOCAL_TIME ( 15, 59, 10.00000000000000000, #232 ) ;
#76 = CC_DESIGN_APPROVAL ( #139, ( #40 ) ) ;
#77 = EDGE_CURVE ( 'NONE', #23, #23, #206, .T. ) ;
#78 = COORDINATED_UNIVERSAL_TIME_OFFSET ( 1, 0, .AHEAD. ) ;
#79 = APPLICATION_PROTOCOL_DEFINITION ( 'international standard', 'config_control_design', 1994, #1 ) ;
#80 = APPROVAL_STATUS ( 'not_yet_approved' ) ;
#81 = EDGE_CURVE ( 'NONE', #95, #95, #93, .T. ) ;
#82 = CARTESIAN_POINT ( 'NONE',  ( 9.601573681818616727E-15, -3.352918073547423982E-16, 2.750000000000000000 ) ) ;
#83 =( NAMED_UNIT ( * ) SI_UNIT ( $, .STERADIAN. ) SOLID_ANGLE_UNIT ( ) );
#84 = EDGE_CURVE ( 'NONE', #27, #27, #122, .T. ) ;
#85 = SECURITY_CLASSIFICATION_LEVEL ( 'unclassified' ) ;
#86 = FACE_OUTER_BOUND ( 'NONE', #97, .T. ) ;
#87 = DIRECTION ( 'NONE',  ( 3.491481338843133355E-15, -1.219242935835426903E-16, 1.000000000000000000 ) ) ;
#88 = DIRECTION ( 'NONE',  ( 0.0000000000000000000, -1.000000000000000000, 0.0000000000000000000 ) ) ;
#89 = AXIS2_PLACEMENT_3D ( 'NONE', #168, #33, #108 ) ;
#90 = CARTESIAN_POINT ( 'NONE',  ( 1.326762908760390423E-13, -4.653657836759941941E-15, 38.00000000000000000 ) ) ;
#91 = ADVANCED_BREP_SHAPE_REPRESENTATION ( '964128', ( #45, #124, #165 ), #220 ) ;
#92 = PERSON_AND_ORGANIZATION_ROLE ( 'creator' ) ;
#93 = CIRCLE ( 'NONE', #230, 0.6181483474218606444 ) ;
#94 = CARTESIAN_POINT ( 'NONE',  ( 9.601573681818616727E-15, -0.5500000000000003775, 2.750000000000000000 ) ) ;
#95 = VERTEX_POINT ( 'NONE', #134 ) ;
#96 = COORDINATED_UNIVERSAL_TIME_OFFSET ( 1, 0, .AHEAD. ) ;
#97 = EDGE_LOOP ( 'NONE', ( #161 ) ) ;
#98 = CC_DESIGN_DATE_AND_TIME_ASSIGNMENT ( #121, #221, ( #35 ) ) ;
#99 = PERSON_AND_ORGANIZATION_ROLE ( 'creator' ) ;
#100 = AXIS2_PLACEMENT_3D ( 'NONE', #225, #18, #187 ) ;
#101 = APPLICATION_CONTEXT ( 'configuration controlled 3d designs of mechanical parts and assemblies' ) ;
#102 = CC_DESIGN_PERSON_AND_ORGANIZATION_ASSIGNMENT ( #133, #215, ( #28 ) ) ;
#103 = EDGE_LOOP ( 'NONE', ( #180 ) ) ;
#104 = DIRECTION ( 'NONE',  ( 0.0000000000000000000, 1.000000000000000000, 0.0000000000000000000 ) ) ;
#105 = FACE_BOUND ( 'NONE', #202, .T. ) ;
#106 = ADVANCED_FACE ( 'NONE', ( #147 ), #131, .F. ) ;
#107 = DIRECTION ( 'NONE',  ( 0.0000000000000000000, 1.000000000000000000, 0.0000000000000000000 ) ) ;
#108 = DIRECTION ( 'NONE',  ( 4.275831445896958607E-31, 1.000000000000000000, 1.224646799147353207E-16 ) ) ;
#109 = LOCAL_TIME ( 15, 59, 10.00000000000000000, #61 ) ;
#110 = DESIGN_CONTEXT ( 'detailed design', #101, 'design' ) ;
#111 = DIRECTION ( 'NONE',  ( -3.491481338843133355E-15, 1.224646799147353207E-16, -1.000000000000000000 ) ) ;
#112 = APPLICATION_PROTOCOL_DEFINITION ( 'international standard', 'config_control_design', 1994, #101 ) ;
#113 = CARTESIAN_POINT ( 'NONE',  ( 9.601573681818616727E-15, 1.124819836996384858E-32, 2.750000000000000000 ) ) ;
#114 = VERTEX_POINT ( 'NONE', #193 ) ;
#115 = CIRCLE ( 'NONE', #141, 0.5500000000000000444 ) ;
#116 = DATE_AND_TIME ( #51, #186 ) ;
#117 = ORIENTED_EDGE ( 'NONE', *, *, #81, .T. ) ;
#118 = PERSON_AND_ORGANIZATION_ROLE ( 'design_supplier' ) ;
#119 = FACE_BOUND ( 'NONE', #163, .T. ) ;
#120 = EDGE_CURVE ( 'NONE', #114, #114, #237, .T. ) ;
#121 = DATE_AND_TIME ( #184, #32 ) ;
#122 = CIRCLE ( 'NONE', #158, 1.199999999999993738 ) ;
#123 = ORIENTED_EDGE ( 'NONE', *, *, #77, .T. ) ;
#124 = MANIFOLD_SOLID_BREP ( 'Corps-Déplacer/Copier1[2]', #13 ) ;
#125 = PERSON_AND_ORGANIZATION ( #140, #58 ) ;
#126 = DIRECTION ( 'NONE',  ( -4.256963957985714144E-31, -1.000000000000000000, -1.219242935835427642E-16 ) ) ;
#127 = CARTESIAN_POINT ( 'NONE',  ( 0.0000000000000000000, 0.0000000000000000000, 0.0000000000000000000 ) ) ;
#128 = AXIS2_PLACEMENT_3D ( 'NONE', #129, #17, #222 ) ;
#129 = CARTESIAN_POINT ( 'NONE',  ( 2.289976462162488656E-14, -7.996713583026424904E-16, 6.558753262365277337 ) ) ;
#130 = DIRECTION ( 'NONE',  ( 3.491481338843133355E-15, -1.219242935835426903E-16, 1.000000000000000000 ) ) ;
#131 = PLANE ( 'NONE',  #15 ) ;
#132 = AXIS2_PLACEMENT_3D ( 'NONE', #113, #172, #9 ) ;
#133 = PERSON_AND_ORGANIZATION ( #140, #58 ) ;
#134 = CARTESIAN_POINT ( 'NONE',  ( 1.140889741404387311E-14, -0.6181483474218609775, 3.267638090205028600 ) ) ;
#135 = DIRECTION ( 'NONE',  ( 3.491481338843133355E-15, -1.219242935835426903E-16, 1.000000000000000000 ) ) ;
#136 = AXIS2_PLACEMENT_3D ( 'NONE', #74, #111, #70 ) ;
#137 = APPROVAL_DATE_TIME ( #41, #3 ) ;
#138 = CARTESIAN_POINT ( 'NONE',  ( 1.316288464743861212E-13, 1.499999999999989120, 37.69999999999999574 ) ) ;
#139 = APPROVAL ( #80, 'UNSPECIFIED' ) ;
#140 = PERSON ( 'UNSPECIFIED', 'UNSPECIFIED', 'UNSPECIFIED', ('UNSPECIFIED'), ('UNSPECIFIED'), ('UNSPECIFIED') ) ;
#141 = AXIS2_PLACEMENT_3D ( 'NONE', #16, #130, #88 ) ;
#142 = EDGE_LOOP ( 'NONE', ( #166 ) ) ;
#143 = EDGE_LOOP ( 'NONE', ( #205 ) ) ;
#144 = PERSON_AND_ORGANIZATION ( #140, #58 ) ;
#145 = ORIENTED_EDGE ( 'NONE', *, *, #198, .F. ) ;
#146 = AXIS2_PLACEMENT_3D ( 'NONE', #56, #21, #171 ) ;
#147 = FACE_OUTER_BOUND ( 'NONE', #64, .T. ) ;
#148 = CYLINDRICAL_SURFACE ( 'NONE', #89, 1.499999999999991784 ) ;
#149 = CYLINDRICAL_SURFACE ( 'NONE', #191, 0.5500000000000001554 ) ;
#150 = ADVANCED_FACE ( 'NONE', ( #243, #223 ), #154, .F. ) ;
#151 = FACE_OUTER_BOUND ( 'NONE', #67, .T. ) ;
#152 = LOCAL_TIME ( 15, 59, 10.00000000000000000, #78 ) ;
#153 = FACE_OUTER_BOUND ( 'NONE', #208, .T. ) ;
#154 = TOROIDAL_SURFACE ( 'NONE', #24, 2.550000000000000711, 2.000000000000000000 ) ;
#155 = VERTEX_POINT ( 'NONE', #174 ) ;
#156 = CARTESIAN_POINT ( 'NONE',  ( 0.0000000000000000000, 0.0000000000000000000, 0.0000000000000000000 ) ) ;
#157 = APPROVAL_ROLE ( '' ) ;
#158 = AXIS2_PLACEMENT_3D ( 'NONE', #169, #36, #107 ) ;
#159 = ADVANCED_FACE ( 'NONE', ( #105, #153 ), #19, .T. ) ;
#160 = SHAPE_DEFINITION_REPRESENTATION ( #176, #91 ) ;
#161 = ORIENTED_EDGE ( 'NONE', *, *, #68, .T. ) ;
#162 = APPROVAL_ROLE ( '' ) ;
#163 = EDGE_LOOP ( 'NONE', ( #219 ) ) ;
#164 = CIRCLE ( 'NONE', #29, 0.5500000000000000444 ) ;
#165 = AXIS2_PLACEMENT_3D ( 'NONE', #156, #227, #217 ) ;
#166 = ORIENTED_EDGE ( 'NONE', *, *, #240, .F. ) ;
#167 = ADVANCED_FACE ( 'NONE', ( #86 ), #211, .T. ) ;
#168 = CARTESIAN_POINT ( 'NONE',  ( 0.0000000000000000000, 0.0000000000000000000, 0.0000000000000000000 ) ) ;
#169 = CARTESIAN_POINT ( 'NONE',  ( 1.326762908760390423E-13, -4.653657836759941941E-15, 38.00000000000000000 ) ) ;
#170 = DIRECTION ( 'NONE',  ( 3.491481338843133355E-15, -1.219242935835426903E-16, 1.000000000000000000 ) ) ;
#171 = DIRECTION ( 'NONE',  ( 0.0000000000000000000, -1.000000000000000000, 0.0000000000000000000 ) ) ;
#172 = DIRECTION ( 'NONE',  ( 3.491481338843133355E-15, -1.224646799147353207E-16, 1.000000000000000000 ) ) ;
#173 = APPROVAL_PERSON_ORGANIZATION ( #228, #3, #157 ) ;
#174 = CARTESIAN_POINT ( 'NONE',  ( 2.289976462162488656E-14, -1.499999999999992673, 6.558753262365277337 ) ) ;
#175 = CALENDAR_DATE ( 2021, 16, 11 ) ;
#176 = PRODUCT_DEFINITION_SHAPE ( 'NONE', 'NONE',  #63 ) ;
#177 = CC_DESIGN_SECURITY_CLASSIFICATION ( #35, ( #40 ) ) ;
#178 = APPROVAL_STATUS ( 'not_yet_approved' ) ;
#179 = EDGE_LOOP ( 'NONE', ( #12 ) ) ;
#180 = ORIENTED_EDGE ( 'NONE', *, *, #81, .F. ) ;
#181 = AXIS2_PLACEMENT_3D ( 'NONE', #72, #188, #4 ) ;
#182 = ORIENTED_EDGE ( 'NONE', *, *, #68, .F. ) ;
#183 = PRODUCT_RELATED_PRODUCT_CATEGORY ( 'detail', '', ( #28 ) ) ;
#184 = CALENDAR_DATE ( 2021, 16, 11 ) ;
#185 = CC_DESIGN_DATE_AND_TIME_ASSIGNMENT ( #196, #26, ( #63 ) ) ;
#186 = LOCAL_TIME ( 15, 59, 10.00000000000000000, #62 ) ;
#187 = DIRECTION ( 'NONE',  ( -4.275831445896958607E-31, -1.000000000000000000, -1.224646799147353207E-16 ) ) ;
#188 = DIRECTION ( 'NONE',  ( 3.491481338843133355E-15, -1.224646799147353207E-16, 1.000000000000000000 ) ) ;
#189 = DIRECTION ( 'NONE',  ( 4.275831445896958607E-31, 1.000000000000000000, 1.224646799147353207E-16 ) ) ;
#190 = CARTESIAN_POINT ( 'NONE',  ( 1.326762908760390423E-13, 8.998558695971030697E-33, 38.00000000000000000 ) ) ;
#191 = AXIS2_PLACEMENT_3D ( 'NONE', #127, #87, #224 ) ;
#192 = DIRECTION ( 'NONE',  ( -4.315327242388476984E-31, -1.000000000000000000, -1.219242935835426903E-16 ) ) ;
#193 = CARTESIAN_POINT ( 'NONE',  ( -3.675150562962976678E-30, -0.5500000000000001554, -1.052604956548529106E-15 ) ) ;
#194 = CC_DESIGN_PERSON_AND_ORGANIZATION_ASSIGNMENT ( #144, #11, ( #35 ) ) ;
#195 = DIRECTION ( 'NONE',  ( 0.0000000000000000000, -1.000000000000000000, 0.0000000000000000000 ) ) ;
#196 = DATE_AND_TIME ( #175, #152 ) ;
#197 = VERTEX_POINT ( 'NONE', #218 ) ;
#198 = EDGE_CURVE ( 'NONE', #155, #155, #242, .T. ) ;
#199 = VERTEX_POINT ( 'NONE', #94 ) ;
#200 = CC_DESIGN_APPROVAL ( #203, ( #35 ) ) ;
#201 = EDGE_LOOP ( 'NONE', ( #238 ) ) ;
#202 = EDGE_LOOP ( 'NONE', ( #117 ) ) ;
#203 = APPROVAL ( #48, 'UNSPECIFIED' ) ;
#204 = DATE_AND_TIME ( #235, #75 ) ;
#205 = ORIENTED_EDGE ( 'NONE', *, *, #120, .T. ) ;
#206 = CIRCLE ( 'NONE', #136, 1.499999999999993783 ) ;
#207 = PERSON_AND_ORGANIZATION ( #140, #58 ) ;
#208 = EDGE_LOOP ( 'NONE', ( #14 ) ) ;
#209 = DIRECTION ( 'NONE',  ( -3.491481338843133355E-15, 1.224646799147353207E-16, -1.000000000000000000 ) ) ;
#210 = CARTESIAN_POINT ( 'NONE',  ( 9.601573681818615149E-15, -4.336808689942017736E-16, 2.749999999999999556 ) ) ;
#211 = PLANE ( 'NONE',  #181 ) ;
#212 = PLANE ( 'NONE',  #132 ) ;
#213 = CARTESIAN_POINT ( 'NONE',  ( -3.441017545273762238E-30, 1.201620723984997983E-31, -9.855465950775805577E-16 ) ) ;
#214 = AXIS2_PLACEMENT_3D ( 'NONE', #213, #71, #126 ) ;
#215 = PERSON_AND_ORGANIZATION_ROLE ( 'design_owner' ) ;
#216 = ADVANCED_FACE ( 'NONE', ( #37, #55 ), #149, .T. ) ;
#217 = DIRECTION ( 'NONE',  ( 1.000000000000000000, 0.0000000000000000000, 0.0000000000000000000 ) ) ;
#218 = CARTESIAN_POINT ( 'NONE',  ( 9.601573681818616727E-15, -0.5500000000000003775, 2.750000000000000000 ) ) ;
#219 = ORIENTED_EDGE ( 'NONE', *, *, #84, .T. ) ;
#220 =( GEOMETRIC_REPRESENTATION_CONTEXT ( 3 ) GLOBAL_UNCERTAINTY_ASSIGNED_CONTEXT ( ( #6 ) ) GLOBAL_UNIT_ASSIGNED_CONTEXT ( ( #5, #44, #83 ) ) REPRESENTATION_CONTEXT ( 'NONE', 'WORKASPACE' ) );
#221 = DATE_TIME_ROLE ( 'classification_date' ) ;
#222 = DIRECTION ( 'NONE',  ( 0.0000000000000000000, -1.000000000000000000, 0.0000000000000000000 ) ) ;
#223 = FACE_OUTER_BOUND ( 'NONE', #103, .T. ) ;
#224 = DIRECTION ( 'NONE',  ( -4.256963957985708889E-31, -1.000000000000000000, -1.219242935835426903E-16 ) ) ;
#225 = CARTESIAN_POINT ( 'NONE',  ( -1.282754905350004587E-30, 4.499298539707956128E-32, -3.673956068672651857E-16 ) ) ;
#226 = CC_DESIGN_PERSON_AND_ORGANIZATION_ASSIGNMENT ( #22, #92, ( #63 ) ) ;
#227 = DIRECTION ( 'NONE',  ( 0.0000000000000000000, 0.0000000000000000000, 1.000000000000000000 ) ) ;
#228 = PERSON_AND_ORGANIZATION ( #140, #58 ) ;
#229 = APPROVAL_ROLE ( '' ) ;
#230 = AXIS2_PLACEMENT_3D ( 'NONE', #2, #39, #73 ) ;
#231 = PERSON_AND_ORGANIZATION ( #140, #58 ) ;
#232 = COORDINATED_UNIVERSAL_TIME_OFFSET ( 1, 0, .AHEAD. ) ;
#233 = EDGE_LOOP ( 'NONE', ( #145 ) ) ;
#234 = APPROVAL_DATE_TIME ( #116, #139 ) ;
#235 = CALENDAR_DATE ( 2021, 16, 11 ) ;
#236 = ADVANCED_FACE ( 'NONE', ( #57 ), #212, .F. ) ;
#237 = CIRCLE ( 'NONE', #214, 0.5500000000000001554 ) ;
#238 = ORIENTED_EDGE ( 'NONE', *, *, #240, .T. ) ;
#239 = DIRECTION ( 'NONE',  ( -3.491481338843133355E-15, 1.224646799147353207E-16, -1.000000000000000000 ) ) ;
#240 = EDGE_CURVE ( 'NONE', #197, #197, #164, .T. ) ;
#241 = PLANE ( 'NONE',  #100 ) ;
#242 = CIRCLE ( 'NONE', #128, 1.499999999999991784 ) ;
#243 = FACE_OUTER_BOUND ( 'NONE', #201, .T. ) ;
ENDSEC;
END-ISO-10303-21;
