ISO-10303-21;
HEADER;
FILE_DESCRIPTION (( 'STEP AP203' ),
    '1' );
FILE_NAME ('964127.step',
    '2021-11-16T14:59:10',
    ( '' ),
    ( '' ),
    'SwSTEP 2.0',
    'SolidWorks 2019',
    '' );
FILE_SCHEMA (( 'CONFIG_CONTROL_DESIGN' ));
ENDSEC;

DATA;
#1 = AXIS2_PLACEMENT_3D ( 'NONE', #167, #79, #150 ) ;
#2 = EDGE_LOOP ( 'NONE', ( #166 ) ) ;
#3 = EDGE_LOOP ( 'NONE', ( #163 ) ) ;
#4 = UNCERTAINTY_MEASURE_WITH_UNIT (LENGTH_MEASURE( 1.000000000000000082E-05 ), #185, 'distance_accuracy_value', 'NONE');
#5 = EDGE_LOOP ( 'NONE', ( #74 ) ) ;
#6 = CARTESIAN_POINT ( 'NONE',  ( 1.316288464743861212E-13, 1.499999999999989120, 37.69999999999999574 ) ) ;
#7 = AXIS2_PLACEMENT_3D ( 'NONE', #13, #187, #191 ) ;
#8 = FACE_OUTER_BOUND ( 'NONE', #93, .T. ) ;
#9 = APPROVAL_STATUS ( 'not_yet_approved' ) ;
#10 = CONICAL_SURFACE ( 'NONE', #177, 1.199999999999993738, 0.7853981633974453924 ) ;
#11 = DIRECTION ( 'NONE',  ( 0.0000000000000000000, -1.000000000000000000, 0.0000000000000000000 ) ) ;
#12 = ADVANCED_BREP_SHAPE_REPRESENTATION ( '964127', ( #16, #90, #21 ), #49 ) ;
#13 = CARTESIAN_POINT ( 'NONE',  ( 8.728703347107831810E-15, -4.336808689942017736E-16, 2.499999999999999556 ) ) ;
#14 = COORDINATED_UNIVERSAL_TIME_OFFSET ( 1, 0, .AHEAD. ) ;
#15 = CARTESIAN_POINT ( 'NONE',  ( 3.570879932466771688E-14, -1.246969326154031471E-15, 10.22740661031270371 ) ) ;
#16 = MANIFOLD_SOLID_BREP ( 'Corps-Déplacer/Copier1[1]', #232 ) ;
#17 = APPLICATION_PROTOCOL_DEFINITION ( 'international standard', 'config_control_design', 1994, #226 ) ;
#18 = DIRECTION ( 'NONE',  ( 3.491481338843133355E-15, -1.219242935835426903E-16, 1.000000000000000000 ) ) ;
#19 = APPROVAL_STATUS ( 'not_yet_approved' ) ;
#20 = CIRCLE ( 'NONE', #1, 0.4999999999999998890 ) ;
#21 = AXIS2_PLACEMENT_3D ( 'NONE', #51, #35, #105 ) ;
#22 = CIRCLE ( 'NONE', #59, 1.499999999999991562 ) ;
#23 = PERSON ( 'UNSPECIFIED', 'UNSPECIFIED', 'UNSPECIFIED', ('UNSPECIFIED'), ('UNSPECIFIED'), ('UNSPECIFIED') ) ;
#24 = EDGE_LOOP ( 'NONE', ( #205 ) ) ;
#25 = ORIENTED_EDGE ( 'NONE', *, *, #140, .F. ) ;
#26 = FACE_OUTER_BOUND ( 'NONE', #161, .T. ) ;
#27 = PERSON_AND_ORGANIZATION ( #23, #81 ) ;
#28 = DIRECTION ( 'NONE',  ( -3.491481338843133355E-15, 1.224646799147353207E-16, -1.000000000000000000 ) ) ;
#29 = PERSON_AND_ORGANIZATION ( #23, #81 ) ;
#30 = CARTESIAN_POINT ( 'NONE',  ( 8.728703347107831810E-15, -3.048107339588566764E-16, 2.499999999999999556 ) ) ;
#31 = DIRECTION ( 'NONE',  ( 0.0000000000000000000, -1.000000000000000000, 0.0000000000000000000 ) ) ;
#32 = DATE_AND_TIME ( #190, #121 ) ;
#33 = ADVANCED_FACE ( 'NONE', ( #38, #108 ), #114, .T. ) ;
#34 = PLANE ( 'NONE',  #186 ) ;
#35 = DIRECTION ( 'NONE',  ( 0.0000000000000000000, 0.0000000000000000000, 1.000000000000000000 ) ) ;
#36 = AXIS2_PLACEMENT_3D ( 'NONE', #30, #209, #171 ) ;
#37 = ORIENTED_EDGE ( 'NONE', *, *, #224, .F. ) ;
#38 = FACE_BOUND ( 'NONE', #162, .T. ) ;
#39 = VERTEX_POINT ( 'NONE', #225 ) ;
#40 = CC_DESIGN_SECURITY_CLASSIFICATION ( #200, ( #91 ) ) ;
#41 = ADVANCED_FACE ( 'NONE', ( #44, #64 ), #10, .T. ) ;
#42 = VERTEX_POINT ( 'NONE', #128 ) ;
#43 = ORIENTED_EDGE ( 'NONE', *, *, #224, .T. ) ;
#44 = FACE_OUTER_BOUND ( 'NONE', #57, .T. ) ;
#45 = DIRECTION ( 'NONE',  ( -3.491481338843133355E-15, 1.224646799147353207E-16, -1.000000000000000000 ) ) ;
#46 = PERSON_AND_ORGANIZATION_ROLE ( 'design_supplier' ) ;
#47 = DIRECTION ( 'NONE',  ( -4.275831445896958607E-31, -1.000000000000000000, -1.224646799147353207E-16 ) ) ;
#48 = DATE_AND_TIME ( #136, #109 ) ;
#49 =( GEOMETRIC_REPRESENTATION_CONTEXT ( 3 ) GLOBAL_UNCERTAINTY_ASSIGNED_CONTEXT ( ( #4 ) ) GLOBAL_UNIT_ASSIGNED_CONTEXT ( ( #185, #155, #103 ) ) REPRESENTATION_CONTEXT ( 'NONE', 'WORKASPACE' ) );
#50 = DIRECTION ( 'NONE',  ( 3.491481338843133355E-15, -1.224646799147353207E-16, 1.000000000000000000 ) ) ;
#51 = CARTESIAN_POINT ( 'NONE',  ( 0.0000000000000000000, 0.0000000000000000000, 0.0000000000000000000 ) ) ;
#52 = FACE_OUTER_BOUND ( 'NONE', #2, .T. ) ;
#53 = DATE_TIME_ROLE ( 'creation_date' ) ;
#54 = CLOSED_SHELL ( 'NONE', ( #95, #72, #134 ) ) ;
#55 = CC_DESIGN_DATE_AND_TIME_ASSIGNMENT ( #218, #170, ( #200 ) ) ;
#56 = AXIS2_PLACEMENT_3D ( 'NONE', #104, #66, #122 ) ;
#57 = EDGE_LOOP ( 'NONE', ( #227 ) ) ;
#58 = CARTESIAN_POINT ( 'NONE',  ( 8.728703347107831810E-15, -0.5000000000000002220, 2.499999999999999556 ) ) ;
#59 = AXIS2_PLACEMENT_3D ( 'NONE', #73, #130, #78 ) ;
#60 = EDGE_LOOP ( 'NONE', ( #96 ) ) ;
#61 = DIRECTION ( 'NONE',  ( 3.491481338843133355E-15, -1.224646799147353207E-16, 1.000000000000000000 ) ) ;
#62 = DIRECTION ( 'NONE',  ( -4.275831445896958607E-31, -1.000000000000000000, -1.224646799147353207E-16 ) ) ;
#63 = PERSON_AND_ORGANIZATION_ROLE ( 'creator' ) ;
#64 = FACE_BOUND ( 'NONE', #5, .T. ) ;
#65 = APPROVAL_ROLE ( '' ) ;
#66 = DIRECTION ( 'NONE',  ( -3.491481338843133355E-15, 1.224646799147353207E-16, -1.000000000000000000 ) ) ;
#67 = APPROVAL_DATE_TIME ( #48, #204 ) ;
#68 = DIRECTION ( 'NONE',  ( 0.0000000000000000000, 1.000000000000000000, 0.0000000000000000000 ) ) ;
#69 = PERSON_AND_ORGANIZATION ( #23, #81 ) ;
#70 = APPROVAL_ROLE ( '' ) ;
#71 = CIRCLE ( 'NONE', #107, 0.5000000000000000000 ) ;
#72 = ADVANCED_FACE ( 'NONE', ( #212, #26 ), #137, .T. ) ;
#73 = CARTESIAN_POINT ( 'NONE',  ( 2.267841357442618277E-14, -7.919416678232937389E-16, 6.495355802743726592 ) ) ;
#74 = ORIENTED_EDGE ( 'NONE', *, *, #228, .T. ) ;
#75 = CC_DESIGN_DATE_AND_TIME_ASSIGNMENT ( #32, #53, ( #143 ) ) ;
#76 = ORIENTED_EDGE ( 'NONE', *, *, #140, .T. ) ;
#77 = ORIENTED_EDGE ( 'NONE', *, *, #197, .F. ) ;
#78 = DIRECTION ( 'NONE',  ( 0.0000000000000000000, -1.000000000000000000, 0.0000000000000000000 ) ) ;
#79 = DIRECTION ( 'NONE',  ( 3.491481338843133355E-15, -1.219242935835426903E-16, 1.000000000000000000 ) ) ;
#80 = CALENDAR_DATE ( 2021, 16, 11 ) ;
#81 = ORGANIZATION ( 'UNSPECIFIED', 'UNSPECIFIED', '' ) ;
#82 = CARTESIAN_POINT ( 'NONE',  ( 1.326762908760390423E-13, -4.653657836759941941E-15, 38.00000000000000000 ) ) ;
#83 = PERSON_AND_ORGANIZATION ( #23, #81 ) ;
#84 = EDGE_CURVE ( 'NONE', #208, #208, #94, .T. ) ;
#85 = FACE_OUTER_BOUND ( 'NONE', #24, .T. ) ;
#86 = DIRECTION ( 'NONE',  ( 3.491481338843133355E-15, -1.219242935835426903E-16, 1.000000000000000000 ) ) ;
#87 = APPROVAL_DATE_TIME ( #139, #234 ) ;
#88 = PERSON_AND_ORGANIZATION_ROLE ( 'creator' ) ;
#89 = ADVANCED_FACE ( 'NONE', ( #169 ), #235, .F. ) ;
#90 = MANIFOLD_SOLID_BREP ( 'Corps-Déplacer/Copier1[2]', #54 ) ;
#91 = PRODUCT_DEFINITION_FORMATION_WITH_SPECIFIED_SOURCE ( 'ANY', '', #198, .NOT_KNOWN. ) ;
#92 = APPROVAL_PERSON_ORGANIZATION ( #233, #219, #116 ) ;
#93 = EDGE_LOOP ( 'NONE', ( #43 ) ) ;
#94 = CIRCLE ( 'NONE', #214, 1.499999999999993783 ) ;
#95 = ADVANCED_FACE ( 'NONE', ( #8 ), #175, .T. ) ;
#96 = ORIENTED_EDGE ( 'NONE', *, *, #243, .T. ) ;
#97 = DIRECTION ( 'NONE',  ( 4.275831445896958607E-31, 1.000000000000000000, 1.224646799147353207E-16 ) ) ;
#98 = DIRECTION ( 'NONE',  ( -3.491481338843133355E-15, 1.224646799147353207E-16, -1.000000000000000000 ) ) ;
#99 = CALENDAR_DATE ( 2021, 16, 11 ) ;
#100 = CC_DESIGN_PERSON_AND_ORGANIZATION_ASSIGNMENT ( #83, #46, ( #91 ) ) ;
#101 = CIRCLE ( 'NONE', #131, 1.199999999999993738 ) ;
#102 = FACE_OUTER_BOUND ( 'NONE', #126, .T. ) ;
#103 =( NAMED_UNIT ( * ) SI_UNIT ( $, .STERADIAN. ) SOLID_ANGLE_UNIT ( ) );
#104 = CARTESIAN_POINT ( 'NONE',  ( 0.0000000000000000000, 0.0000000000000000000, 0.0000000000000000000 ) ) ;
#105 = DIRECTION ( 'NONE',  ( 1.000000000000000000, 0.0000000000000000000, 0.0000000000000000000 ) ) ;
#106 = DIRECTION ( 'NONE',  ( 3.491481338843133355E-15, -1.219242935835426903E-16, 1.000000000000000000 ) ) ;
#107 = AXIS2_PLACEMENT_3D ( 'NONE', #173, #216, #229 ) ;
#108 = FACE_OUTER_BOUND ( 'NONE', #60, .T. ) ;
#109 = LOCAL_TIME ( 15, 59, 10.00000000000000000, #14 ) ;
#110 = VERTEX_POINT ( 'NONE', #58 ) ;
#111 = CARTESIAN_POINT ( 'NONE',  ( 1.326762908760390423E-13, 1.199999999999989297, 38.00000000000000000 ) ) ;
#112 = ADVANCED_FACE ( 'NONE', ( #102, #119 ), #207, .F. ) ;
#113 = ORIENTED_EDGE ( 'NONE', *, *, #197, .T. ) ;
#114 = CONICAL_SURFACE ( 'NONE', #221, 2.499999999999992895, 0.2617993877991429685 ) ;
#115 = DIRECTION ( 'NONE',  ( -4.275831445896958607E-31, -1.000000000000000000, -1.224646799147353207E-16 ) ) ;
#116 = APPROVAL_ROLE ( '' ) ;
#117 = CARTESIAN_POINT ( 'NONE',  ( 1.326762908760390423E-13, 8.998558695971030697E-33, 38.00000000000000000 ) ) ;
#118 = APPROVAL_DATE_TIME ( #176, #219 ) ;
#119 = FACE_OUTER_BOUND ( 'NONE', #3, .T. ) ;
#120 = SHAPE_DEFINITION_REPRESENTATION ( #217, #12 ) ;
#121 = LOCAL_TIME ( 15, 59, 10.00000000000000000, #188 ) ;
#122 = DIRECTION ( 'NONE',  ( 4.275831445896958607E-31, 1.000000000000000000, 1.224646799147353207E-16 ) ) ;
#123 = PERSON_AND_ORGANIZATION ( #23, #81 ) ;
#124 = EDGE_LOOP ( 'NONE', ( #77 ) ) ;
#125 = CC_DESIGN_PERSON_AND_ORGANIZATION_ASSIGNMENT ( #123, #63, ( #143 ) ) ;
#126 = EDGE_LOOP ( 'NONE', ( #76 ) ) ;
#127 = DESIGN_CONTEXT ( 'detailed design', #242, 'design' ) ;
#128 = CARTESIAN_POINT ( 'NONE',  ( 8.728703347107831810E-15, -0.5000000000000002220, 2.499999999999999556 ) ) ;
#129 = CC_DESIGN_APPROVAL ( #219, ( #143 ) ) ;
#130 = DIRECTION ( 'NONE',  ( -3.491481338843133355E-15, 1.219242935835426903E-16, -1.000000000000000000 ) ) ;
#131 = AXIS2_PLACEMENT_3D ( 'NONE', #231, #45, #178 ) ;
#132 = DIRECTION ( 'NONE',  ( 0.0000000000000000000, 1.000000000000000000, 0.0000000000000000000 ) ) ;
#133 = CALENDAR_DATE ( 2021, 16, 11 ) ;
#134 = ADVANCED_FACE ( 'NONE', ( #149 ), #238, .F. ) ;
#135 = CARTESIAN_POINT ( 'NONE',  ( 8.728703347107833388E-15, 1.124819836996384995E-32, 2.500000000000000000 ) ) ;
#136 = CALENDAR_DATE ( 2021, 16, 11 ) ;
#137 = CYLINDRICAL_SURFACE ( 'NONE', #152, 0.5000000000000000000 ) ;
#138 = CARTESIAN_POINT ( 'NONE',  ( -1.282754905350004587E-30, 4.499298539707956128E-32, -3.673956068672651857E-16 ) ) ;
#139 = DATE_AND_TIME ( #133, #181 ) ;
#140 = EDGE_CURVE ( 'NONE', #42, #42, #159, .T. ) ;
#141 = CC_DESIGN_APPROVAL ( #204, ( #200 ) ) ;
#142 = ADVANCED_FACE ( 'NONE', ( #85, #154 ), #237, .T. ) ;
#143 = PRODUCT_DEFINITION ( 'UNKNOWN', '', #91, #127 ) ;
#144 = ORIENTED_EDGE ( 'NONE', *, *, #243, .F. ) ;
#145 = PRODUCT_RELATED_PRODUCT_CATEGORY ( 'detail', '', ( #198 ) ) ;
#146 = VERTEX_POINT ( 'NONE', #202 ) ;
#147 = LOCAL_TIME ( 15, 59, 10.00000000000000000, #213 ) ;
#148 = CARTESIAN_POINT ( 'NONE',  ( 2.267841357442618277E-14, -1.499999999999992450, 6.495355802743726592 ) ) ;
#149 = FACE_OUTER_BOUND ( 'NONE', #124, .T. ) ;
#150 = DIRECTION ( 'NONE',  ( 0.0000000000000000000, -1.000000000000000000, 0.0000000000000000000 ) ) ;
#151 = PERSON_AND_ORGANIZATION ( #23, #81 ) ;
#152 = AXIS2_PLACEMENT_3D ( 'NONE', #153, #86, #156 ) ;
#153 = CARTESIAN_POINT ( 'NONE',  ( 0.0000000000000000000, 0.0000000000000000000, 0.0000000000000000000 ) ) ;
#154 = FACE_OUTER_BOUND ( 'NONE', #222, .T. ) ;
#155 =( NAMED_UNIT ( * ) PLANE_ANGLE_UNIT ( ) SI_UNIT ( $, .RADIAN. ) );
#156 = DIRECTION ( 'NONE',  ( -4.256963957985708889E-31, -1.000000000000000000, -1.219242935835426903E-16 ) ) ;
#157 = AXIS2_PLACEMENT_3D ( 'NONE', #135, #50, #115 ) ;
#158 = PERSON_AND_ORGANIZATION_ROLE ( 'classification_officer' ) ;
#159 = CIRCLE ( 'NONE', #36, 0.4999999999999998890 ) ;
#160 = AXIS2_PLACEMENT_3D ( 'NONE', #194, #18, #31 ) ;
#161 = EDGE_LOOP ( 'NONE', ( #37 ) ) ;
#162 = EDGE_LOOP ( 'NONE', ( #201 ) ) ;
#163 = ORIENTED_EDGE ( 'NONE', *, *, #179, .F. ) ;
#164 = VERTEX_POINT ( 'NONE', #111 ) ;
#165 = CC_DESIGN_APPROVAL ( #234, ( #91 ) ) ;
#166 = ORIENTED_EDGE ( 'NONE', *, *, #228, .F. ) ;
#167 = CARTESIAN_POINT ( 'NONE',  ( 8.728703347107831810E-15, -3.048107339588566764E-16, 2.499999999999999556 ) ) ;
#168 = APPROVAL_STATUS ( 'not_yet_approved' ) ;
#169 = FACE_OUTER_BOUND ( 'NONE', #183, .T. ) ;
#170 = DATE_TIME_ROLE ( 'classification_date' ) ;
#171 = DIRECTION ( 'NONE',  ( 0.0000000000000000000, -1.000000000000000000, 0.0000000000000000000 ) ) ;
#172 = MECHANICAL_CONTEXT ( 'NONE', #226, 'mechanical' ) ;
#173 = CARTESIAN_POINT ( 'NONE',  ( -3.419732725483832761E-30, 1.194187957302074866E-31, -9.794503803984032555E-16 ) ) ;
#174 = APPLICATION_PROTOCOL_DEFINITION ( 'international standard', 'config_control_design', 1994, #242 ) ;
#175 = PLANE ( 'NONE',  #241 ) ;
#176 = DATE_AND_TIME ( #80, #147 ) ;
#177 = AXIS2_PLACEMENT_3D ( 'NONE', #82, #98, #68 ) ;
#178 = DIRECTION ( 'NONE',  ( 0.0000000000000000000, 1.000000000000000000, 0.0000000000000000000 ) ) ;
#179 = EDGE_CURVE ( 'NONE', #146, #146, #180, .T. ) ;
#180 = CIRCLE ( 'NONE', #160, 0.5681483474218603780 ) ;
#181 = LOCAL_TIME ( 15, 59, 10.00000000000000000, #211 ) ;
#182 = CC_DESIGN_PERSON_AND_ORGANIZATION_ASSIGNMENT ( #27, #88, ( #91 ) ) ;
#183 = EDGE_LOOP ( 'NONE', ( #25 ) ) ;
#184 = VERTEX_POINT ( 'NONE', #148 ) ;
#185 =( LENGTH_UNIT ( ) NAMED_UNIT ( * ) SI_UNIT ( .MILLI., .METRE. ) );
#186 = AXIS2_PLACEMENT_3D ( 'NONE', #117, #206, #97 ) ;
#187 = DIRECTION ( 'NONE',  ( 3.491481338843133355E-15, -1.219242935835426903E-16, 1.000000000000000000 ) ) ;
#188 = COORDINATED_UNIVERSAL_TIME_OFFSET ( 1, 0, .AHEAD. ) ;
#189 = CARTESIAN_POINT ( 'NONE',  ( 1.316288464743861212E-13, -4.616918432785521081E-15, 37.69999999999999574 ) ) ;
#190 = CALENDAR_DATE ( 2021, 16, 11 ) ;
#191 = DIRECTION ( 'NONE',  ( -4.315975723326284799E-31, -1.000000000000000000, -1.219242935835426903E-16 ) ) ;
#192 = PERSON_AND_ORGANIZATION_ROLE ( 'design_owner' ) ;
#193 = CC_DESIGN_PERSON_AND_ORGANIZATION_ASSIGNMENT ( #151, #192, ( #198 ) ) ;
#194 = CARTESIAN_POINT ( 'NONE',  ( 1.053602707933308977E-14, -3.679233924390390001E-16, 3.017638090205028600 ) ) ;
#195 = SECURITY_CLASSIFICATION_LEVEL ( 'unclassified' ) ;
#196 = DIRECTION ( 'NONE',  ( 3.491481338843133355E-15, -1.224646799147353207E-16, 1.000000000000000000 ) ) ;
#197 = EDGE_CURVE ( 'NONE', #39, #39, #71, .T. ) ;
#198 = PRODUCT ( '964127', '964127', '', ( #172 ) ) ;
#199 = ADVANCED_FACE ( 'NONE', ( #52 ), #34, .F. ) ;
#200 = SECURITY_CLASSIFICATION ( '', '', #195 ) ;
#201 = ORIENTED_EDGE ( 'NONE', *, *, #179, .T. ) ;
#202 = CARTESIAN_POINT ( 'NONE',  ( 1.053602707933308977E-14, -0.5681483474218607110, 3.017638090205028600 ) ) ;
#203 = AXIS2_PLACEMENT_3D ( 'NONE', #138, #196, #62 ) ;
#204 = APPROVAL ( #9, 'UNSPECIFIED' ) ;
#205 = ORIENTED_EDGE ( 'NONE', *, *, #84, .T. ) ;
#206 = DIRECTION ( 'NONE',  ( -3.491481338843133355E-15, 1.224646799147353207E-16, -1.000000000000000000 ) ) ;
#207 = TOROIDAL_SURFACE ( 'NONE', #7, 2.500000000000000444, 2.000000000000000000 ) ;
#208 = VERTEX_POINT ( 'NONE', #6 ) ;
#209 = DIRECTION ( 'NONE',  ( 3.491481338843133355E-15, -1.219242935835426903E-16, 1.000000000000000000 ) ) ;
#210 = CARTESIAN_POINT ( 'NONE',  ( 8.728703347107833388E-15, 1.124819836996384995E-32, 2.500000000000000000 ) ) ;
#211 = COORDINATED_UNIVERSAL_TIME_OFFSET ( 1, 0, .AHEAD. ) ;
#212 = FACE_OUTER_BOUND ( 'NONE', #223, .T. ) ;
#213 = COORDINATED_UNIVERSAL_TIME_OFFSET ( 1, 0, .AHEAD. ) ;
#214 = AXIS2_PLACEMENT_3D ( 'NONE', #189, #28, #132 ) ;
#215 = CC_DESIGN_PERSON_AND_ORGANIZATION_ASSIGNMENT ( #29, #158, ( #200 ) ) ;
#216 = DIRECTION ( 'NONE',  ( 3.491481338843133355E-15, -1.219242935835426903E-16, 1.000000000000000000 ) ) ;
#217 = PRODUCT_DEFINITION_SHAPE ( 'NONE', 'NONE',  #143 ) ;
#218 = DATE_AND_TIME ( #99, #239 ) ;
#219 = APPROVAL ( #168, 'UNSPECIFIED' ) ;
#220 = APPROVAL_PERSON_ORGANIZATION ( #236, #204, #65 ) ;
#221 = AXIS2_PLACEMENT_3D ( 'NONE', #15, #106, #11 ) ;
#222 = EDGE_LOOP ( 'NONE', ( #144 ) ) ;
#223 = EDGE_LOOP ( 'NONE', ( #113 ) ) ;
#224 = EDGE_CURVE ( 'NONE', #110, #110, #20, .T. ) ;
#225 = CARTESIAN_POINT ( 'NONE',  ( -3.632580923383118425E-30, -0.5000000000000000000, -1.040412527190174502E-15 ) ) ;
#226 = APPLICATION_CONTEXT ( 'configuration controlled 3d designs of mechanical parts and assemblies' ) ;
#227 = ORIENTED_EDGE ( 'NONE', *, *, #84, .F. ) ;
#228 = EDGE_CURVE ( 'NONE', #164, #164, #101, .T. ) ;
#229 = DIRECTION ( 'NONE',  ( -4.256963957985712392E-31, -1.000000000000000000, -1.219242935835425424E-16 ) ) ;
#230 = APPROVAL_PERSON_ORGANIZATION ( #69, #234, #70 ) ;
#231 = CARTESIAN_POINT ( 'NONE',  ( 1.326762908760390423E-13, -4.653657836759941941E-15, 38.00000000000000000 ) ) ;
#232 = CLOSED_SHELL ( 'NONE', ( #142, #41, #199, #33, #112, #89 ) ) ;
#233 = PERSON_AND_ORGANIZATION ( #23, #81 ) ;
#234 = APPROVAL ( #19, 'UNSPECIFIED' ) ;
#235 = PLANE ( 'NONE',  #157 ) ;
#236 = PERSON_AND_ORGANIZATION ( #23, #81 ) ;
#237 = CYLINDRICAL_SURFACE ( 'NONE', #56, 1.499999999999991562 ) ;
#238 = PLANE ( 'NONE',  #203 ) ;
#239 = LOCAL_TIME ( 15, 59, 10.00000000000000000, #240 ) ;
#240 = COORDINATED_UNIVERSAL_TIME_OFFSET ( 1, 0, .AHEAD. ) ;
#241 = AXIS2_PLACEMENT_3D ( 'NONE', #210, #61, #47 ) ;
#242 = APPLICATION_CONTEXT ( 'configuration controlled 3d designs of mechanical parts and assemblies' ) ;
#243 = EDGE_CURVE ( 'NONE', #184, #184, #22, .T. ) ;
ENDSEC;
END-ISO-10303-21;
