ISO-10303-21;
HEADER;
FILE_DESCRIPTION (( 'STEP AP203' ),
    '1' );
FILE_NAME ('964126.step',
    '2021-11-16T14:59:09',
    ( '' ),
    ( '' ),
    'SwSTEP 2.0',
    'SolidWorks 2019',
    '' );
FILE_SCHEMA (( 'CONFIG_CONTROL_DESIGN' ));
ENDSEC;

DATA;
#1 = ORIENTED_EDGE ( 'NONE', *, *, #146, .T. ) ;
#2 = CIRCLE ( 'NONE', #203, 0.5431483474218609109 ) ;
#3 = PLANE ( 'NONE',  #118 ) ;
#4 = CARTESIAN_POINT ( 'NONE',  ( 1.326762908760390423E-13, -4.653657836759941941E-15, 38.00000000000000000 ) ) ;
#5 = FACE_OUTER_BOUND ( 'NONE', #242, .T. ) ;
#6 = AXIS2_PLACEMENT_3D ( 'NONE', #4, #86, #174 ) ;
#7 = DIRECTION ( 'NONE',  ( 3.491481338843133355E-15, -1.219242935835426903E-16, 1.000000000000000000 ) ) ;
#8 = DIRECTION ( 'NONE',  ( 3.491481338843133355E-15, -1.224646799147353207E-16, 1.000000000000000000 ) ) ;
#9 = CARTESIAN_POINT ( 'NONE',  ( 8.379555213223516897E-15, -0.4750000000000006994, 2.399999999999999467 ) ) ;
#10 = APPLICATION_PROTOCOL_DEFINITION ( 'international standard', 'config_control_design', 1994, #43 ) ;
#11 = CARTESIAN_POINT ( 'NONE',  ( 8.379555213223516897E-15, -0.4750000000000006994, 2.399999999999999467 ) ) ;
#12 = CALENDAR_DATE ( 2021, 16, 11 ) ;
#13 = AXIS2_PLACEMENT_3D ( 'NONE', #100, #7, #25 ) ;
#14 = CLOSED_SHELL ( 'NONE', ( #184, #153, #205 ) ) ;
#15 = CC_DESIGN_SECURITY_CLASSIFICATION ( #145, ( #94 ) ) ;
#16 = ORIENTED_EDGE ( 'NONE', *, *, #146, .F. ) ;
#17 = EDGE_LOOP ( 'NONE', ( #202 ) ) ;
#18 = FACE_OUTER_BOUND ( 'NONE', #183, .T. ) ;
#19 = CLOSED_SHELL ( 'NONE', ( #233, #32, #227, #191, #78, #209 ) ) ;
#20 = DIRECTION ( 'NONE',  ( 3.491481338843133355E-15, -1.219242935835426903E-16, 1.000000000000000000 ) ) ;
#21 = CYLINDRICAL_SURFACE ( 'NONE', #187, 1.499999999999991562 ) ;
#22 = PLANE ( 'NONE',  #98 ) ;
#23 = LOCAL_TIME ( 15, 59, 9.000000000000000000, #181 ) ;
#24 = APPROVAL ( #221, 'UNSPECIFIED' ) ;
#25 = DIRECTION ( 'NONE',  ( -4.256963957985705386E-31, -1.000000000000000000, -1.219242935835426410E-16 ) ) ;
#26 = PERSON ( 'UNSPECIFIED', 'UNSPECIFIED', 'UNSPECIFIED', ('UNSPECIFIED'), ('UNSPECIFIED'), ('UNSPECIFIED') ) ;
#27 = APPROVAL_DATE_TIME ( #127, #220 ) ;
#28 = APPROVAL_ROLE ( '' ) ;
#29 = CONICAL_SURFACE ( 'NONE', #6, 1.199999999999993738, 0.7853981633974453924 ) ;
#30 = VERTEX_POINT ( 'NONE', #90 ) ;
#31 = CARTESIAN_POINT ( 'NONE',  ( 1.326762908760390423E-13, -4.653657836759941941E-15, 38.00000000000000000 ) ) ;
#32 = ADVANCED_FACE ( 'NONE', ( #37, #186 ), #29, .T. ) ;
#33 = DATE_TIME_ROLE ( 'creation_date' ) ;
#34 = PERSON_AND_ORGANIZATION ( #26, #68 ) ;
#35 = ORIENTED_EDGE ( 'NONE', *, *, #82, .F. ) ;
#36 = SECURITY_CLASSIFICATION_LEVEL ( 'unclassified' ) ;
#37 = FACE_OUTER_BOUND ( 'NONE', #169, .T. ) ;
#38 = EDGE_LOOP ( 'NONE', ( #16 ) ) ;
#39 = AXIS2_PLACEMENT_3D ( 'NONE', #139, #20, #232 ) ;
#40 = LOCAL_TIME ( 15, 59, 9.000000000000000000, #182 ) ;
#41 = DATE_AND_TIME ( #168, #40 ) ;
#42 = DIRECTION ( 'NONE',  ( -4.256963957985708889E-31, -1.000000000000000000, -1.219242935835426656E-16 ) ) ;
#43 = APPLICATION_CONTEXT ( 'configuration controlled 3d designs of mechanical parts and assemblies' ) ;
#44 = DIRECTION ( 'NONE',  ( 0.0000000000000000000, -1.000000000000000000, 0.0000000000000000000 ) ) ;
#45 = AXIS2_PLACEMENT_3D ( 'NONE', #31, #198, #239 ) ;
#46 = FACE_OUTER_BOUND ( 'NONE', #38, .T. ) ;
#47 = CC_DESIGN_PERSON_AND_ORGANIZATION_ASSIGNMENT ( #130, #201, ( #91 ) ) ;
#48 = DIRECTION ( 'NONE',  ( 0.0000000000000000000, -1.000000000000000000, 0.0000000000000000000 ) ) ;
#49 = DIRECTION ( 'NONE',  ( 0.0000000000000000000, -1.000000000000000000, 0.0000000000000000000 ) ) ;
#50 = CALENDAR_DATE ( 2021, 16, 11 ) ;
#51 =( LENGTH_UNIT ( ) NAMED_UNIT ( * ) SI_UNIT ( .MILLI., .METRE. ) );
#52 = MECHANICAL_CONTEXT ( 'NONE', #73, 'mechanical' ) ;
#53 = AXIS2_PLACEMENT_3D ( 'NONE', #180, #105, #196 ) ;
#54 = APPROVAL_STATUS ( 'not_yet_approved' ) ;
#55 = EDGE_LOOP ( 'NONE', ( #133 ) ) ;
#56 = CC_DESIGN_PERSON_AND_ORGANIZATION_ASSIGNMENT ( #115, #72, ( #145 ) ) ;
#57 = ORIENTED_EDGE ( 'NONE', *, *, #149, .T. ) ;
#58 = FACE_OUTER_BOUND ( 'NONE', #132, .T. ) ;
#59 = PRODUCT_RELATED_PRODUCT_CATEGORY ( 'detail', '', ( #230 ) ) ;
#60 = APPROVAL_DATE_TIME ( #41, #24 ) ;
#61 = DIRECTION ( 'NONE',  ( -4.275831445896958607E-31, -1.000000000000000000, -1.224646799147353207E-16 ) ) ;
#62 = CIRCLE ( 'NONE', #96, 0.4750000000000004219 ) ;
#63 = DIRECTION ( 'NONE',  ( -3.491481338843133355E-15, 1.224646799147353207E-16, -1.000000000000000000 ) ) ;
#64 = DIRECTION ( 'NONE',  ( 0.0000000000000000000, -1.000000000000000000, 0.0000000000000000000 ) ) ;
#65 = APPLICATION_PROTOCOL_DEFINITION ( 'international standard', 'config_control_design', 1994, #73 ) ;
#66 = LOCAL_TIME ( 15, 59, 9.000000000000000000, #204 ) ;
#67 = SHAPE_DEFINITION_REPRESENTATION ( #122, #185 ) ;
#68 = ORGANIZATION ( 'UNSPECIFIED', 'UNSPECIFIED', '' ) ;
#69 = CARTESIAN_POINT ( 'NONE',  ( 1.326762908760390423E-13, 1.199999999999989297, 38.00000000000000000 ) ) ;
#70 = VERTEX_POINT ( 'NONE', #69 ) ;
#71 = CARTESIAN_POINT ( 'NONE',  ( -3.611296103593190349E-30, -0.4750000000000005884, -1.034316312510997594E-15 ) ) ;
#72 = PERSON_AND_ORGANIZATION_ROLE ( 'classification_officer' ) ;
#73 = APPLICATION_CONTEXT ( 'configuration controlled 3d designs of mechanical parts and assemblies' ) ;
#74 = PERSON_AND_ORGANIZATION_ROLE ( 'creator' ) ;
#75 = ORIENTED_EDGE ( 'NONE', *, *, #157, .F. ) ;
#76 = MANIFOLD_SOLID_BREP ( 'Corps-Déplacer/Copier1[1]', #19 ) ;
#77 = PERSON_AND_ORGANIZATION ( #26, #68 ) ;
#78 = ADVANCED_FACE ( 'NONE', ( #104, #190 ), #224, .F. ) ;
#79 = ORIENTED_EDGE ( 'NONE', *, *, #103, .T. ) ;
#80 =( GEOMETRIC_REPRESENTATION_CONTEXT ( 3 ) GLOBAL_UNCERTAINTY_ASSIGNED_CONTEXT ( ( #121 ) ) GLOBAL_UNIT_ASSIGNED_CONTEXT ( ( #51, #218, #144 ) ) REPRESENTATION_CONTEXT ( 'NONE', 'WORKASPACE' ) );
#81 = CARTESIAN_POINT ( 'NONE',  ( 2.265502508429788870E-14, -7.911249299232073733E-16, 6.488657072932946690 ) ) ;
#82 = EDGE_CURVE ( 'NONE', #30, #30, #166, .T. ) ;
#83 = CARTESIAN_POINT ( 'NONE',  ( 8.379555213223516897E-15, -2.926183046005023679E-16, 2.399999999999999467 ) ) ;
#84 = DIRECTION ( 'NONE',  ( 0.0000000000000000000, -1.000000000000000000, 0.0000000000000000000 ) ) ;
#85 = APPROVAL_PERSON_ORGANIZATION ( #93, #220, #28 ) ;
#86 = DIRECTION ( 'NONE',  ( -3.491481338843133355E-15, 1.224646799147353207E-16, -1.000000000000000000 ) ) ;
#87 = CARTESIAN_POINT ( 'NONE',  ( 1.326762908760390423E-13, 8.998558695971030697E-33, 38.00000000000000000 ) ) ;
#88 = COORDINATED_UNIVERSAL_TIME_OFFSET ( 1, 0, .AHEAD. ) ;
#89 = CONICAL_SURFACE ( 'NONE', #208, 2.499999999999992895, 0.2617993877991430240 ) ;
#90 = CARTESIAN_POINT ( 'NONE',  ( 2.265502508429788870E-14, -1.499999999999992450, 6.488657072932946690 ) ) ;
#91 = PRODUCT_DEFINITION ( 'UNKNOWN', '', #94, #136 ) ;
#92 = VERTEX_POINT ( 'NONE', #71 ) ;
#93 = PERSON_AND_ORGANIZATION ( #26, #68 ) ;
#94 = PRODUCT_DEFINITION_FORMATION_WITH_SPECIFIED_SOURCE ( 'ANY', '', #230, .NOT_KNOWN. ) ;
#95 = CC_DESIGN_PERSON_AND_ORGANIZATION_ASSIGNMENT ( #206, #74, ( #94 ) ) ;
#96 = AXIS2_PLACEMENT_3D ( 'NONE', #159, #161, #48 ) ;
#97 = EDGE_LOOP ( 'NONE', ( #79 ) ) ;
#98 = AXIS2_PLACEMENT_3D ( 'NONE', #125, #214, #61 ) ;
#99 = DIRECTION ( 'NONE',  ( 4.275831445896958607E-31, 1.000000000000000000, 1.224646799147353207E-16 ) ) ;
#100 = CARTESIAN_POINT ( 'NONE',  ( -3.409090315588869074E-30, 1.190471573960613526E-31, -9.764022730588147030E-16 ) ) ;
#101 = CARTESIAN_POINT ( 'NONE',  ( 0.0000000000000000000, 0.0000000000000000000, 0.0000000000000000000 ) ) ;
#102 = FACE_BOUND ( 'NONE', #55, .T. ) ;
#103 = EDGE_CURVE ( 'NONE', #92, #92, #126, .T. ) ;
#104 = FACE_OUTER_BOUND ( 'NONE', #134, .T. ) ;
#105 = DIRECTION ( 'NONE',  ( 0.0000000000000000000, 0.0000000000000000000, 1.000000000000000000 ) ) ;
#106 = COORDINATED_UNIVERSAL_TIME_OFFSET ( 1, 0, .AHEAD. ) ;
#107 = AXIS2_PLACEMENT_3D ( 'NONE', #87, #117, #99 ) ;
#108 = CC_DESIGN_PERSON_AND_ORGANIZATION_ASSIGNMENT ( #110, #197, ( #230 ) ) ;
#109 = DIRECTION ( 'NONE',  ( 4.275831445896958607E-31, 1.000000000000000000, 1.224646799147353207E-16 ) ) ;
#110 = PERSON_AND_ORGANIZATION ( #26, #68 ) ;
#111 = LOCAL_TIME ( 15, 59, 9.000000000000000000, #88 ) ;
#112 = APPROVAL_ROLE ( '' ) ;
#113 = ORIENTED_EDGE ( 'NONE', *, *, #236, .F. ) ;
#114 = EDGE_LOOP ( 'NONE', ( #207 ) ) ;
#115 = PERSON_AND_ORGANIZATION ( #26, #68 ) ;
#116 = APPROVAL_DATE_TIME ( #163, #243 ) ;
#117 = DIRECTION ( 'NONE',  ( -3.491481338843133355E-15, 1.224646799147353207E-16, -1.000000000000000000 ) ) ;
#118 = AXIS2_PLACEMENT_3D ( 'NONE', #177, #213, #137 ) ;
#119 = DIRECTION ( 'NONE',  ( 0.0000000000000000000, 1.000000000000000000, 0.0000000000000000000 ) ) ;
#120 = PLANE ( 'NONE',  #234 ) ;
#121 = UNCERTAINTY_MEASURE_WITH_UNIT (LENGTH_MEASURE( 1.000000000000000082E-05 ), #51, 'distance_accuracy_value', 'NONE');
#122 = PRODUCT_DEFINITION_SHAPE ( 'NONE', 'NONE',  #91 ) ;
#123 = DIRECTION ( 'NONE',  ( -4.275831445896958607E-31, -1.000000000000000000, -1.224646799147353207E-16 ) ) ;
#124 = EDGE_CURVE ( 'NONE', #165, #165, #2, .T. ) ;
#125 = CARTESIAN_POINT ( 'NONE',  ( 8.379555213223518475E-15, 1.124819836996384995E-32, 2.399999999999999911 ) ) ;
#126 = CIRCLE ( 'NONE', #13, 0.4750000000000005884 ) ;
#127 = DATE_AND_TIME ( #50, #217 ) ;
#128 = APPROVAL_STATUS ( 'not_yet_approved' ) ;
#129 = AXIS2_PLACEMENT_3D ( 'NONE', #83, #228, #49 ) ;
#130 = PERSON_AND_ORGANIZATION ( #26, #68 ) ;
#131 = EDGE_LOOP ( 'NONE', ( #35 ) ) ;
#132 = EDGE_LOOP ( 'NONE', ( #75 ) ) ;
#133 = ORIENTED_EDGE ( 'NONE', *, *, #124, .T. ) ;
#134 = EDGE_LOOP ( 'NONE', ( #1 ) ) ;
#135 = APPROVAL_PERSON_ORGANIZATION ( #179, #243, #238 ) ;
#136 = DESIGN_CONTEXT ( 'detailed design', #43, 'design' ) ;
#137 = DIRECTION ( 'NONE',  ( -4.275831445896958607E-31, -1.000000000000000000, -1.224646799147353207E-16 ) ) ;
#138 = CC_DESIGN_DATE_AND_TIME_ASSIGNMENT ( #200, #33, ( #91 ) ) ;
#139 = CARTESIAN_POINT ( 'NONE',  ( 8.379555213223516897E-15, -4.336808689942017736E-16, 2.399999999999999467 ) ) ;
#140 = CIRCLE ( 'NONE', #45, 1.199999999999993738 ) ;
#141 = FACE_OUTER_BOUND ( 'NONE', #114, .T. ) ;
#142 = CARTESIAN_POINT ( 'NONE',  ( 3.568541083453941965E-14, -1.246152588253945007E-15, 10.22070788050192469 ) ) ;
#143 = DIRECTION ( 'NONE',  ( 3.491481338843133355E-15, -1.219242935835426903E-16, 1.000000000000000000 ) ) ;
#144 =( NAMED_UNIT ( * ) SI_UNIT ( $, .STERADIAN. ) SOLID_ANGLE_UNIT ( ) );
#145 = SECURITY_CLASSIFICATION ( '', '', #36 ) ;
#146 = EDGE_CURVE ( 'NONE', #148, #148, #62, .T. ) ;
#147 = CARTESIAN_POINT ( 'NONE',  ( 1.018687894544877643E-14, -0.5431483474218612439, 2.917638090205028512 ) ) ;
#148 = VERTEX_POINT ( 'NONE', #11 ) ;
#149 = EDGE_CURVE ( 'NONE', #235, #235, #212, .T. ) ;
#150 = CALENDAR_DATE ( 2021, 16, 11 ) ;
#151 = DATE_TIME_ROLE ( 'classification_date' ) ;
#152 = EDGE_LOOP ( 'NONE', ( #222 ) ) ;
#153 = ADVANCED_FACE ( 'NONE', ( #226, #58 ), #173, .T. ) ;
#154 = EDGE_LOOP ( 'NONE', ( #113 ) ) ;
#155 = APPROVAL_PERSON_ORGANIZATION ( #34, #24, #112 ) ;
#156 = ORIENTED_EDGE ( 'NONE', *, *, #149, .F. ) ;
#157 = EDGE_CURVE ( 'NONE', #178, #178, #194, .T. ) ;
#158 = CARTESIAN_POINT ( 'NONE',  ( 1.316288464743861212E-13, -4.616918432785521081E-15, 37.69999999999999574 ) ) ;
#159 = CARTESIAN_POINT ( 'NONE',  ( 8.379555213223516897E-15, -2.926183046005023679E-16, 2.399999999999999467 ) ) ;
#160 = CARTESIAN_POINT ( 'NONE',  ( 8.379555213223518475E-15, 1.124819836996384995E-32, 2.399999999999999911 ) ) ;
#161 = DIRECTION ( 'NONE',  ( 3.491481338843133355E-15, -1.219242935835426903E-16, 1.000000000000000000 ) ) ;
#162 = MANIFOLD_SOLID_BREP ( 'Corps-Déplacer/Copier1[2]', #14 ) ;
#163 = DATE_AND_TIME ( #12, #23 ) ;
#164 = CALENDAR_DATE ( 2021, 16, 11 ) ;
#165 = VERTEX_POINT ( 'NONE', #147 ) ;
#166 = CIRCLE ( 'NONE', #171, 1.499999999999991562 ) ;
#167 = EDGE_LOOP ( 'NONE', ( #57 ) ) ;
#168 = CALENDAR_DATE ( 2021, 16, 11 ) ;
#169 = EDGE_LOOP ( 'NONE', ( #156 ) ) ;
#170 = ORIENTED_EDGE ( 'NONE', *, *, #157, .T. ) ;
#171 = AXIS2_PLACEMENT_3D ( 'NONE', #81, #225, #64 ) ;
#172 = FACE_OUTER_BOUND ( 'NONE', #167, .T. ) ;
#173 = CYLINDRICAL_SURFACE ( 'NONE', #229, 0.4750000000000004774 ) ;
#174 = DIRECTION ( 'NONE',  ( 0.0000000000000000000, 1.000000000000000000, 0.0000000000000000000 ) ) ;
#175 = AXIS2_PLACEMENT_3D ( 'NONE', #158, #193, #119 ) ;
#176 = DIRECTION ( 'NONE',  ( 3.491481338843133355E-15, -1.219242935835426903E-16, 1.000000000000000000 ) ) ;
#177 = CARTESIAN_POINT ( 'NONE',  ( -1.282754905350004587E-30, 4.499298539707956128E-32, -3.673956068672651857E-16 ) ) ;
#178 = VERTEX_POINT ( 'NONE', #9 ) ;
#179 = PERSON_AND_ORGANIZATION ( #26, #68 ) ;
#180 = CARTESIAN_POINT ( 'NONE',  ( 0.0000000000000000000, 0.0000000000000000000, 0.0000000000000000000 ) ) ;
#181 = COORDINATED_UNIVERSAL_TIME_OFFSET ( 1, 0, .AHEAD. ) ;
#182 = COORDINATED_UNIVERSAL_TIME_OFFSET ( 1, 0, .AHEAD. ) ;
#183 = EDGE_LOOP ( 'NONE', ( #170 ) ) ;
#184 = ADVANCED_FACE ( 'NONE', ( #18 ), #22, .T. ) ;
#185 = ADVANCED_BREP_SHAPE_REPRESENTATION ( '964126', ( #76, #162, #53 ), #80 ) ;
#186 = FACE_BOUND ( 'NONE', #152, .T. ) ;
#187 = AXIS2_PLACEMENT_3D ( 'NONE', #101, #63, #109 ) ;
#188 = ORIENTED_EDGE ( 'NONE', *, *, #82, .T. ) ;
#189 = CC_DESIGN_DATE_AND_TIME_ASSIGNMENT ( #219, #151, ( #145 ) ) ;
#190 = FACE_OUTER_BOUND ( 'NONE', #17, .T. ) ;
#191 = ADVANCED_FACE ( 'NONE', ( #102, #5 ), #89, .T. ) ;
#192 = FACE_OUTER_BOUND ( 'NONE', #131, .T. ) ;
#193 = DIRECTION ( 'NONE',  ( -3.491481338843133355E-15, 1.224646799147353207E-16, -1.000000000000000000 ) ) ;
#194 = CIRCLE ( 'NONE', #129, 0.4750000000000004219 ) ;
#195 = DIRECTION ( 'NONE',  ( 3.491481338843133355E-15, -1.219242935835426903E-16, 1.000000000000000000 ) ) ;
#196 = DIRECTION ( 'NONE',  ( 1.000000000000000000, 0.0000000000000000000, 0.0000000000000000000 ) ) ;
#197 = PERSON_AND_ORGANIZATION_ROLE ( 'design_owner' ) ;
#198 = DIRECTION ( 'NONE',  ( -3.491481338843133355E-15, 1.224646799147353207E-16, -1.000000000000000000 ) ) ;
#199 = CC_DESIGN_PERSON_AND_ORGANIZATION_ASSIGNMENT ( #77, #241, ( #94 ) ) ;
#200 = DATE_AND_TIME ( #164, #111 ) ;
#201 = PERSON_AND_ORGANIZATION_ROLE ( 'creator' ) ;
#202 = ORIENTED_EDGE ( 'NONE', *, *, #124, .F. ) ;
#203 = AXIS2_PLACEMENT_3D ( 'NONE', #211, #176, #44 ) ;
#204 = COORDINATED_UNIVERSAL_TIME_OFFSET ( 1, 0, .AHEAD. ) ;
#205 = ADVANCED_FACE ( 'NONE', ( #141 ), #3, .F. ) ;
#206 = PERSON_AND_ORGANIZATION ( #26, #68 ) ;
#207 = ORIENTED_EDGE ( 'NONE', *, *, #103, .F. ) ;
#208 = AXIS2_PLACEMENT_3D ( 'NONE', #142, #195, #84 ) ;
#209 = ADVANCED_FACE ( 'NONE', ( #46 ), #120, .F. ) ;
#210 = FACE_OUTER_BOUND ( 'NONE', #154, .T. ) ;
#211 = CARTESIAN_POINT ( 'NONE',  ( 1.018687894544877643E-14, -3.557309630806847409E-16, 2.917638090205028512 ) ) ;
#212 = CIRCLE ( 'NONE', #175, 1.499999999999993783 ) ;
#213 = DIRECTION ( 'NONE',  ( 3.491481338843133355E-15, -1.224646799147353207E-16, 1.000000000000000000 ) ) ;
#214 = DIRECTION ( 'NONE',  ( 3.491481338843133355E-15, -1.224646799147353207E-16, 1.000000000000000000 ) ) ;
#215 = CARTESIAN_POINT ( 'NONE',  ( 0.0000000000000000000, 0.0000000000000000000, 0.0000000000000000000 ) ) ;
#216 = CC_DESIGN_APPROVAL ( #243, ( #94 ) ) ;
#217 = LOCAL_TIME ( 15, 59, 9.000000000000000000, #106 ) ;
#218 =( NAMED_UNIT ( * ) PLANE_ANGLE_UNIT ( ) SI_UNIT ( $, .RADIAN. ) );
#219 = DATE_AND_TIME ( #150, #66 ) ;
#220 = APPROVAL ( #54, 'UNSPECIFIED' ) ;
#221 = APPROVAL_STATUS ( 'not_yet_approved' ) ;
#222 = ORIENTED_EDGE ( 'NONE', *, *, #236, .T. ) ;
#223 = CC_DESIGN_APPROVAL ( #24, ( #145 ) ) ;
#224 = TOROIDAL_SURFACE ( 'NONE', #39, 2.475000000000001421, 2.000000000000000444 ) ;
#225 = DIRECTION ( 'NONE',  ( -3.491481338843133355E-15, 1.219242935835426903E-16, -1.000000000000000000 ) ) ;
#226 = FACE_OUTER_BOUND ( 'NONE', #97, .T. ) ;
#227 = ADVANCED_FACE ( 'NONE', ( #210 ), #231, .F. ) ;
#228 = DIRECTION ( 'NONE',  ( 3.491481338843133355E-15, -1.219242935835426903E-16, 1.000000000000000000 ) ) ;
#229 = AXIS2_PLACEMENT_3D ( 'NONE', #215, #143, #42 ) ;
#230 = PRODUCT ( '964126', '964126', '', ( #52 ) ) ;
#231 = PLANE ( 'NONE',  #107 ) ;
#232 = DIRECTION ( 'NONE',  ( -4.316305397992992729E-31, -1.000000000000000000, -1.219242935835426903E-16 ) ) ;
#233 = ADVANCED_FACE ( 'NONE', ( #172, #192 ), #21, .T. ) ;
#234 = AXIS2_PLACEMENT_3D ( 'NONE', #160, #8, #123 ) ;
#235 = VERTEX_POINT ( 'NONE', #237 ) ;
#236 = EDGE_CURVE ( 'NONE', #70, #70, #140, .T. ) ;
#237 = CARTESIAN_POINT ( 'NONE',  ( 1.316288464743861212E-13, 1.499999999999989120, 37.69999999999999574 ) ) ;
#238 = APPROVAL_ROLE ( '' ) ;
#239 = DIRECTION ( 'NONE',  ( 0.0000000000000000000, 1.000000000000000000, 0.0000000000000000000 ) ) ;
#240 = CC_DESIGN_APPROVAL ( #220, ( #91 ) ) ;
#241 = PERSON_AND_ORGANIZATION_ROLE ( 'design_supplier' ) ;
#242 = EDGE_LOOP ( 'NONE', ( #188 ) ) ;
#243 = APPROVAL ( #128, 'UNSPECIFIED' ) ;
ENDSEC;
END-ISO-10303-21;
