ISO-10303-21;
HEADER;
FILE_DESCRIPTION (( 'STEP AP203' ),
    '1' );
FILE_NAME ('964125.step',
    '2021-11-16T14:59:09',
    ( '' ),
    ( '' ),
    'SwSTEP 2.0',
    'SolidWorks 2019',
    '' );
FILE_SCHEMA (( 'CONFIG_CONTROL_DESIGN' ));
ENDSEC;

DATA;
#1 = APPLICATION_PROTOCOL_DEFINITION ( 'international standard', 'config_control_design', 1994, #123 ) ;
#2 = ADVANCED_FACE ( 'NONE', ( #45 ), #26, .F. ) ;
#3 = AXIS2_PLACEMENT_3D ( 'NONE', #171, #237, #236 ) ;
#4 = APPROVAL_ROLE ( '' ) ;
#5 = EDGE_CURVE ( 'NONE', #42, #42, #61, .T. ) ;
#6 = CIRCLE ( 'NONE', #133, 1.199999999999993738 ) ;
#7 = EDGE_LOOP ( 'NONE', ( #213 ) ) ;
#8 = PERSON_AND_ORGANIZATION ( #29, #160 ) ;
#9 = ORIENTED_EDGE ( 'NONE', *, *, #90, .T. ) ;
#10 = EDGE_LOOP ( 'NONE', ( #187 ) ) ;
#11 = EDGE_LOOP ( 'NONE', ( #231 ) ) ;
#12 = PLANE ( 'NONE',  #96 ) ;
#13 = CC_DESIGN_PERSON_AND_ORGANIZATION_ASSIGNMENT ( #75, #74, ( #226 ) ) ;
#14 = CLOSED_SHELL ( 'NONE', ( #82, #124, #225, #30, #49, #235 ) ) ;
#15 = CARTESIAN_POINT ( 'NONE',  ( 0.0000000000000000000, 0.0000000000000000000, 0.0000000000000000000 ) ) ;
#16 = DIRECTION ( 'NONE',  ( 3.491481338843133355E-15, -1.224646799147353207E-16, 1.000000000000000000 ) ) ;
#17 = APPROVAL ( #222, 'UNSPECIFIED' ) ;
#18 = DIRECTION ( 'NONE',  ( 3.491481338843133355E-15, -1.219242935835426903E-16, 1.000000000000000000 ) ) ;
#19 = CARTESIAN_POINT ( 'NONE',  ( 1.326762908760390423E-13, 8.998558695971030697E-33, 38.00000000000000000 ) ) ;
#20 = VERTEX_POINT ( 'NONE', #130 ) ;
#21 = DIRECTION ( 'NONE',  ( 0.0000000000000000000, -1.000000000000000000, 0.0000000000000000000 ) ) ;
#22 = CARTESIAN_POINT ( 'NONE',  ( 0.0000000000000000000, 0.0000000000000000000, 0.0000000000000000000 ) ) ;
#23 = CIRCLE ( 'NONE', #129, 0.4499999999999997335 ) ;
#24 = DATE_TIME_ROLE ( 'classification_date' ) ;
#25 = EDGE_LOOP ( 'NONE', ( #63 ) ) ;
#26 = PLANE ( 'NONE',  #107 ) ;
#27 = EDGE_LOOP ( 'NONE', ( #131 ) ) ;
#28 = ADVANCED_BREP_SHAPE_REPRESENTATION ( '964125', ( #128, #208, #173 ), #102 ) ;
#29 = PERSON ( 'UNSPECIFIED', 'UNSPECIFIED', 'UNSPECIFIED', ('UNSPECIFIED'), ('UNSPECIFIED'), ('UNSPECIFIED') ) ;
#30 = ADVANCED_FACE ( 'NONE', ( #196, #120 ), #52, .T. ) ;
#31 = DIRECTION ( 'NONE',  ( 3.491481338843133355E-15, -1.219242935835426903E-16, 1.000000000000000000 ) ) ;
#32 = DIRECTION ( 'NONE',  ( -3.491481338843133355E-15, 1.224646799147353207E-16, -1.000000000000000000 ) ) ;
#33 = PRODUCT_RELATED_PRODUCT_CATEGORY ( 'detail', '', ( #203 ) ) ;
#34 = DIRECTION ( 'NONE',  ( 4.275831445896958607E-31, 1.000000000000000000, 1.224646799147353207E-16 ) ) ;
#35 = DIRECTION ( 'NONE',  ( -3.491481338843133355E-15, 1.224646799147353207E-16, -1.000000000000000000 ) ) ;
#36 = FACE_OUTER_BOUND ( 'NONE', #68, .T. ) ;
#37 = CC_DESIGN_APPROVAL ( #197, ( #135 ) ) ;
#38 = VERTEX_POINT ( 'NONE', #221 ) ;
#39 = APPROVAL_ROLE ( '' ) ;
#40 = DATE_AND_TIME ( #242, #89 ) ;
#41 = DIRECTION ( 'NONE',  ( -4.275831445896958607E-31, -1.000000000000000000, -1.224646799147353207E-16 ) ) ;
#42 = VERTEX_POINT ( 'NONE', #180 ) ;
#43 = PERSON_AND_ORGANIZATION ( #29, #160 ) ;
#44 = AXIS2_PLACEMENT_3D ( 'NONE', #86, #139, #104 ) ;
#45 = FACE_OUTER_BOUND ( 'NONE', #7, .T. ) ;
#46 = DATE_AND_TIME ( #132, #62 ) ;
#47 = EDGE_LOOP ( 'NONE', ( #185 ) ) ;
#48 = AXIS2_PLACEMENT_3D ( 'NONE', #153, #218, #50 ) ;
#49 = ADVANCED_FACE ( 'NONE', ( #121, #170 ), #178, .F. ) ;
#50 = DIRECTION ( 'NONE',  ( 0.0000000000000000000, -1.000000000000000000, 0.0000000000000000000 ) ) ;
#51 = DIRECTION ( 'NONE',  ( 3.491481338843133355E-15, -1.219242935835426903E-16, 1.000000000000000000 ) ) ;
#52 = CONICAL_SURFACE ( 'NONE', #206, 2.499999999999992895, 0.2617993877991429685 ) ;
#53 = DIRECTION ( 'NONE',  ( 0.0000000000000000000, -1.000000000000000000, 0.0000000000000000000 ) ) ;
#54 = FACE_BOUND ( 'NONE', #66, .T. ) ;
#55 = CALENDAR_DATE ( 2021, 16, 11 ) ;
#56 = CC_DESIGN_PERSON_AND_ORGANIZATION_ASSIGNMENT ( #243, #157, ( #203 ) ) ;
#57 = AXIS2_PLACEMENT_3D ( 'NONE', #177, #60, #21 ) ;
#58 =( NAMED_UNIT ( * ) SI_UNIT ( $, .STERADIAN. ) SOLID_ANGLE_UNIT ( ) );
#59 = APPROVAL ( #204, 'UNSPECIFIED' ) ;
#60 = DIRECTION ( 'NONE',  ( 3.491481338843133355E-15, -1.219242935835426903E-16, 1.000000000000000000 ) ) ;
#61 = CIRCLE ( 'NONE', #238, 0.4499999999999997335 ) ;
#62 = LOCAL_TIME ( 15, 59, 9.000000000000000000, #210 ) ;
#63 = ORIENTED_EDGE ( 'NONE', *, *, #239, .F. ) ;
#64 = APPLICATION_CONTEXT ( 'configuration controlled 3d designs of mechanical parts and assemblies' ) ;
#65 = APPROVAL_ROLE ( '' ) ;
#66 = EDGE_LOOP ( 'NONE', ( #80 ) ) ;
#67 = AXIS2_PLACEMENT_3D ( 'NONE', #15, #122, #34 ) ;
#68 = EDGE_LOOP ( 'NONE', ( #83 ) ) ;
#69 = DIRECTION ( 'NONE',  ( -4.275831445896958607E-31, -1.000000000000000000, -1.224646799147353207E-16 ) ) ;
#70 = FACE_OUTER_BOUND ( 'NONE', #11, .T. ) ;
#71 = CYLINDRICAL_SURFACE ( 'NONE', #224, 0.4499999999999997891 ) ;
#72 = CARTESIAN_POINT ( 'NONE',  ( 1.326762908760390423E-13, -4.653657836759941941E-15, 38.00000000000000000 ) ) ;
#73 = CARTESIAN_POINT ( 'NONE',  ( 7.855833012397050049E-15, 1.124819836996384995E-32, 2.250000000000000000 ) ) ;
#74 = PERSON_AND_ORGANIZATION_ROLE ( 'creator' ) ;
#75 = PERSON_AND_ORGANIZATION ( #29, #160 ) ;
#76 = CC_DESIGN_PERSON_AND_ORGANIZATION_ASSIGNMENT ( #227, #209, ( #135 ) ) ;
#77 =( LENGTH_UNIT ( ) NAMED_UNIT ( * ) SI_UNIT ( .MILLI., .METRE. ) );
#78 = PRODUCT_DEFINITION_FORMATION_WITH_SPECIFIED_SOURCE ( 'ANY', '', #203, .NOT_KNOWN. ) ;
#79 = PERSON_AND_ORGANIZATION ( #29, #160 ) ;
#80 = ORIENTED_EDGE ( 'NONE', *, *, #217, .T. ) ;
#81 = EDGE_LOOP ( 'NONE', ( #116 ) ) ;
#82 = ADVANCED_FACE ( 'NONE', ( #84, #106 ), #190, .T. ) ;
#83 = ORIENTED_EDGE ( 'NONE', *, *, #217, .F. ) ;
#84 = FACE_OUTER_BOUND ( 'NONE', #150, .T. ) ;
#85 = CARTESIAN_POINT ( 'NONE',  ( 7.855833012397048472E-15, -2.743296605629709545E-16, 2.249999999999999556 ) ) ;
#86 = CARTESIAN_POINT ( 'NONE',  ( 7.855833012397048472E-15, -4.336808689942017736E-16, 2.249999999999999556 ) ) ;
#87 = FACE_OUTER_BOUND ( 'NONE', #47, .T. ) ;
#88 = CIRCLE ( 'NONE', #117, 0.4499999999999999001 ) ;
#89 = LOCAL_TIME ( 15, 59, 9.000000000000000000, #108 ) ;
#90 = EDGE_CURVE ( 'NONE', #111, #111, #145, .T. ) ;
#91 = DIRECTION ( 'NONE',  ( -3.491481338843133355E-15, 1.224646799147353207E-16, -1.000000000000000000 ) ) ;
#92 = MECHANICAL_CONTEXT ( 'NONE', #64, 'mechanical' ) ;
#93 = COORDINATED_UNIVERSAL_TIME_OFFSET ( 1, 0, .AHEAD. ) ;
#94 = APPROVAL_PERSON_ORGANIZATION ( #8, #197, #65 ) ;
#95 = VERTEX_POINT ( 'NONE', #200 ) ;
#96 = AXIS2_PLACEMENT_3D ( 'NONE', #136, #214, #41 ) ;
#97 = ORIENTED_EDGE ( 'NONE', *, *, #239, .T. ) ;
#98 = SHAPE_DEFINITION_REPRESENTATION ( #166, #28 ) ;
#99 = EDGE_LOOP ( 'NONE', ( #9 ) ) ;
#100 = CLOSED_SHELL ( 'NONE', ( #230, #174, #2 ) ) ;
#101 = FACE_OUTER_BOUND ( 'NONE', #165, .T. ) ;
#102 =( GEOMETRIC_REPRESENTATION_CONTEXT ( 3 ) GLOBAL_UNCERTAINTY_ASSIGNED_CONTEXT ( ( #223 ) ) GLOBAL_UNIT_ASSIGNED_CONTEXT ( ( #77, #158, #58 ) ) REPRESENTATION_CONTEXT ( 'NONE', 'WORKASPACE' ) );
#103 = DIRECTION ( 'NONE',  ( 0.0000000000000000000, -1.000000000000000000, 0.0000000000000000000 ) ) ;
#104 = DIRECTION ( 'NONE',  ( -4.316638776869437357E-31, -1.000000000000000000, -1.219242935835426903E-16 ) ) ;
#105 = EDGE_CURVE ( 'NONE', #109, #109, #23, .T. ) ;
#106 = FACE_OUTER_BOUND ( 'NONE', #189, .T. ) ;
#107 = AXIS2_PLACEMENT_3D ( 'NONE', #138, #16, #125 ) ;
#108 = COORDINATED_UNIVERSAL_TIME_OFFSET ( 1, 0, .AHEAD. ) ;
#109 = VERTEX_POINT ( 'NONE', #161 ) ;
#110 = COORDINATED_UNIVERSAL_TIME_OFFSET ( 1, 0, .AHEAD. ) ;
#111 = VERTEX_POINT ( 'NONE', #148 ) ;
#112 = DIRECTION ( 'NONE',  ( 0.0000000000000000000, 0.0000000000000000000, 1.000000000000000000 ) ) ;
#113 = CC_DESIGN_PERSON_AND_ORGANIZATION_ASSIGNMENT ( #118, #181, ( #78 ) ) ;
#114 = PERSON_AND_ORGANIZATION_ROLE ( 'creator' ) ;
#115 = DESIGN_CONTEXT ( 'detailed design', #123, 'design' ) ;
#116 = ORIENTED_EDGE ( 'NONE', *, *, #105, .F. ) ;
#117 = AXIS2_PLACEMENT_3D ( 'NONE', #215, #51, #240 ) ;
#118 = PERSON_AND_ORGANIZATION ( #29, #160 ) ;
#119 = CC_DESIGN_APPROVAL ( #59, ( #226 ) ) ;
#120 = FACE_OUTER_BOUND ( 'NONE', #99, .T. ) ;
#121 = FACE_OUTER_BOUND ( 'NONE', #10, .T. ) ;
#122 = DIRECTION ( 'NONE',  ( -3.491481338843133355E-15, 1.224646799147353207E-16, -1.000000000000000000 ) ) ;
#123 = APPLICATION_CONTEXT ( 'configuration controlled 3d designs of mechanical parts and assemblies' ) ;
#124 = ADVANCED_FACE ( 'NONE', ( #70, #54 ), #188, .T. ) ;
#125 = DIRECTION ( 'NONE',  ( -4.275831445896958607E-31, -1.000000000000000000, -1.224646799147353207E-16 ) ) ;
#126 = CARTESIAN_POINT ( 'NONE',  ( 3.548744827746900677E-14, -1.239239635674682424E-15, 10.16400915069115207 ) ) ;
#127 = VERTEX_POINT ( 'NONE', #220 ) ;
#128 = MANIFOLD_SOLID_BREP ( 'Corps-Déplacer/Copier1[1]', #14 ) ;
#129 = AXIS2_PLACEMENT_3D ( 'NONE', #169, #195, #103 ) ;
#130 = CARTESIAN_POINT ( 'NONE',  ( 9.663156744622306430E-15, -0.5181483474218605556, 2.767638090205028600 ) ) ;
#131 = ORIENTED_EDGE ( 'NONE', *, *, #198, .T. ) ;
#132 = CALENDAR_DATE ( 2021, 16, 11 ) ;
#133 = AXIS2_PLACEMENT_3D ( 'NONE', #72, #32, #194 ) ;
#134 = ORIENTED_EDGE ( 'NONE', *, *, #151, .T. ) ;
#135 = SECURITY_CLASSIFICATION ( '', '', #149 ) ;
#136 = CARTESIAN_POINT ( 'NONE',  ( 7.855833012397050049E-15, 1.124819836996384995E-32, 2.250000000000000000 ) ) ;
#137 = CARTESIAN_POINT ( 'NONE',  ( 0.0000000000000000000, 0.0000000000000000000, 0.0000000000000000000 ) ) ;
#138 = CARTESIAN_POINT ( 'NONE',  ( -1.282754905350004587E-30, 4.499298539707956128E-32, -3.673956068672651857E-16 ) ) ;
#139 = DIRECTION ( 'NONE',  ( 3.491481338843133355E-15, -1.219242935835426903E-16, 1.000000000000000000 ) ) ;
#140 = DIRECTION ( 'NONE',  ( 3.491481338843133355E-15, -1.224646799147353207E-16, 1.000000000000000000 ) ) ;
#141 = DATE_AND_TIME ( #144, #146 ) ;
#142 = DATE_AND_TIME ( #55, #163 ) ;
#143 = APPLICATION_PROTOCOL_DEFINITION ( 'international standard', 'config_control_design', 1994, #64 ) ;
#144 = CALENDAR_DATE ( 2021, 16, 11 ) ;
#145 = CIRCLE ( 'NONE', #48, 1.499999999999991562 ) ;
#146 = LOCAL_TIME ( 15, 59, 9.000000000000000000, #110 ) ;
#147 = CC_DESIGN_SECURITY_CLASSIFICATION ( #135, ( #78 ) ) ;
#148 = CARTESIAN_POINT ( 'NONE',  ( 2.245706252722746951E-14, -1.499999999999992450, 6.431958343122174959 ) ) ;
#149 = SECURITY_CLASSIFICATION_LEVEL ( 'unclassified' ) ;
#150 = EDGE_LOOP ( 'NONE', ( #134 ) ) ;
#151 = EDGE_CURVE ( 'NONE', #127, #127, #159, .T. ) ;
#152 = CC_DESIGN_PERSON_AND_ORGANIZATION_ASSIGNMENT ( #43, #114, ( #78 ) ) ;
#153 = CARTESIAN_POINT ( 'NONE',  ( 2.245706252722746951E-14, -7.842119773439447903E-16, 6.431958343122174959 ) ) ;
#154 = DIRECTION ( 'NONE',  ( 0.0000000000000000000, 1.000000000000000000, 0.0000000000000000000 ) ) ;
#155 = FACE_OUTER_BOUND ( 'NONE', #27, .T. ) ;
#156 = DIRECTION ( 'NONE',  ( 4.275831445896958607E-31, 1.000000000000000000, 1.224646799147353207E-16 ) ) ;
#157 = PERSON_AND_ORGANIZATION_ROLE ( 'design_owner' ) ;
#158 =( NAMED_UNIT ( * ) PLANE_ANGLE_UNIT ( ) SI_UNIT ( $, .RADIAN. ) );
#159 = CIRCLE ( 'NONE', #3, 1.499999999999993783 ) ;
#160 = ORGANIZATION ( 'UNSPECIFIED', 'UNSPECIFIED', '' ) ;
#161 = CARTESIAN_POINT ( 'NONE',  ( 7.855833012397048472E-15, -0.4500000000000000111, 2.249999999999999556 ) ) ;
#162 = AXIS2_PLACEMENT_3D ( 'NONE', #19, #91, #156 ) ;
#163 = LOCAL_TIME ( 15, 59, 9.000000000000000000, #93 ) ;
#164 = EDGE_LOOP ( 'NONE', ( #97 ) ) ;
#165 = EDGE_LOOP ( 'NONE', ( #232 ) ) ;
#166 = PRODUCT_DEFINITION_SHAPE ( 'NONE', 'NONE',  #226 ) ;
#167 = CALENDAR_DATE ( 2021, 16, 11 ) ;
#168 = FACE_OUTER_BOUND ( 'NONE', #81, .T. ) ;
#169 = CARTESIAN_POINT ( 'NONE',  ( 7.855833012397048472E-15, -2.743296605629709545E-16, 2.249999999999999556 ) ) ;
#170 = FACE_OUTER_BOUND ( 'NONE', #25, .T. ) ;
#171 = CARTESIAN_POINT ( 'NONE',  ( 1.316288464743861212E-13, -4.616918432785521081E-15, 37.69999999999999574 ) ) ;
#172 = PLANE ( 'NONE',  #162 ) ;
#173 = AXIS2_PLACEMENT_3D ( 'NONE', #22, #112, #176 ) ;
#174 = ADVANCED_FACE ( 'NONE', ( #155, #87 ), #71, .T. ) ;
#175 = PERSON_AND_ORGANIZATION ( #29, #160 ) ;
#176 = DIRECTION ( 'NONE',  ( 1.000000000000000000, 0.0000000000000000000, 0.0000000000000000000 ) ) ;
#177 = CARTESIAN_POINT ( 'NONE',  ( 9.663156744622306430E-15, -3.374423190431533275E-16, 2.767638090205028600 ) ) ;
#178 = TOROIDAL_SURFACE ( 'NONE', #44, 2.450000000000000622, 2.000000000000000444 ) ;
#179 = CC_DESIGN_DATE_AND_TIME_ASSIGNMENT ( #46, #24, ( #135 ) ) ;
#180 = CARTESIAN_POINT ( 'NONE',  ( 7.855833012397048472E-15, -0.4500000000000000111, 2.249999999999999556 ) ) ;
#181 = PERSON_AND_ORGANIZATION_ROLE ( 'design_supplier' ) ;
#182 = CC_DESIGN_DATE_AND_TIME_ASSIGNMENT ( #141, #202, ( #226 ) ) ;
#183 = APPROVAL_DATE_TIME ( #186, #197 ) ;
#184 = APPROVAL_STATUS ( 'not_yet_approved' ) ;
#185 = ORIENTED_EDGE ( 'NONE', *, *, #5, .F. ) ;
#186 = DATE_AND_TIME ( #167, #201 ) ;
#187 = ORIENTED_EDGE ( 'NONE', *, *, #105, .T. ) ;
#188 = CONICAL_SURFACE ( 'NONE', #211, 1.199999999999993738, 0.7853981633974453924 ) ;
#189 = EDGE_LOOP ( 'NONE', ( #229 ) ) ;
#190 = CYLINDRICAL_SURFACE ( 'NONE', #67, 1.499999999999991562 ) ;
#191 = CARTESIAN_POINT ( 'NONE',  ( 1.326762908760390423E-13, -4.653657836759941941E-15, 38.00000000000000000 ) ) ;
#192 = APPROVAL_PERSON_ORGANIZATION ( #175, #59, #4 ) ;
#193 = CC_DESIGN_APPROVAL ( #17, ( #78 ) ) ;
#194 = DIRECTION ( 'NONE',  ( 0.0000000000000000000, 1.000000000000000000, 0.0000000000000000000 ) ) ;
#195 = DIRECTION ( 'NONE',  ( 3.491481338843133355E-15, -1.219242935835426903E-16, 1.000000000000000000 ) ) ;
#196 = FACE_BOUND ( 'NONE', #164, .T. ) ;
#197 = APPROVAL ( #184, 'UNSPECIFIED' ) ;
#198 = EDGE_CURVE ( 'NONE', #95, #95, #88, .T. ) ;
#199 = AXIS2_PLACEMENT_3D ( 'NONE', #73, #140, #69 ) ;
#200 = CARTESIAN_POINT ( 'NONE',  ( -3.590011283803261572E-30, -0.4499999999999999001, -1.028220097831820292E-15 ) ) ;
#201 = LOCAL_TIME ( 15, 59, 9.000000000000000000, #228 ) ;
#202 = DATE_TIME_ROLE ( 'creation_date' ) ;
#203 = PRODUCT ( '964125', '964125', '', ( #92 ) ) ;
#204 = APPROVAL_STATUS ( 'not_yet_approved' ) ;
#205 = APPROVAL_DATE_TIME ( #40, #59 ) ;
#206 = AXIS2_PLACEMENT_3D ( 'NONE', #126, #219, #216 ) ;
#207 = APPROVAL_DATE_TIME ( #142, #17 ) ;
#208 = MANIFOLD_SOLID_BREP ( 'Corps-Déplacer/Copier1[2]', #100 ) ;
#209 = PERSON_AND_ORGANIZATION_ROLE ( 'classification_officer' ) ;
#210 = COORDINATED_UNIVERSAL_TIME_OFFSET ( 1, 0, .AHEAD. ) ;
#211 = AXIS2_PLACEMENT_3D ( 'NONE', #191, #35, #154 ) ;
#212 = APPROVAL_PERSON_ORGANIZATION ( #79, #17, #39 ) ;
#213 = ORIENTED_EDGE ( 'NONE', *, *, #198, .F. ) ;
#214 = DIRECTION ( 'NONE',  ( 3.491481338843133355E-15, -1.224646799147353207E-16, 1.000000000000000000 ) ) ;
#215 = CARTESIAN_POINT ( 'NONE',  ( -3.398447905693904685E-30, 1.186755190619151968E-31, -9.733541657192261506E-16 ) ) ;
#216 = DIRECTION ( 'NONE',  ( 0.0000000000000000000, -1.000000000000000000, 0.0000000000000000000 ) ) ;
#217 = EDGE_CURVE ( 'NONE', #38, #38, #6, .T. ) ;
#218 = DIRECTION ( 'NONE',  ( -3.491481338843133355E-15, 1.219242935835426903E-16, -1.000000000000000000 ) ) ;
#219 = DIRECTION ( 'NONE',  ( 3.491481338843133355E-15, -1.219242935835426903E-16, 1.000000000000000000 ) ) ;
#220 = CARTESIAN_POINT ( 'NONE',  ( 1.316288464743861212E-13, 1.499999999999989120, 37.69999999999999574 ) ) ;
#221 = CARTESIAN_POINT ( 'NONE',  ( 1.326762908760390423E-13, 1.199999999999989297, 38.00000000000000000 ) ) ;
#222 = APPROVAL_STATUS ( 'not_yet_approved' ) ;
#223 = UNCERTAINTY_MEASURE_WITH_UNIT (LENGTH_MEASURE( 1.000000000000000082E-05 ), #77, 'distance_accuracy_value', 'NONE');
#224 = AXIS2_PLACEMENT_3D ( 'NONE', #137, #18, #234 ) ;
#225 = ADVANCED_FACE ( 'NONE', ( #36 ), #172, .F. ) ;
#226 = PRODUCT_DEFINITION ( 'UNKNOWN', '', #78, #115 ) ;
#227 = PERSON_AND_ORGANIZATION ( #29, #160 ) ;
#228 = COORDINATED_UNIVERSAL_TIME_OFFSET ( 1, 0, .AHEAD. ) ;
#229 = ORIENTED_EDGE ( 'NONE', *, *, #90, .F. ) ;
#230 = ADVANCED_FACE ( 'NONE', ( #101 ), #241, .T. ) ;
#231 = ORIENTED_EDGE ( 'NONE', *, *, #151, .F. ) ;
#232 = ORIENTED_EDGE ( 'NONE', *, *, #5, .T. ) ;
#233 = CIRCLE ( 'NONE', #57, 0.5181483474218602225 ) ;
#234 = DIRECTION ( 'NONE',  ( -4.256963957985708889E-31, -1.000000000000000000, -1.219242935835426656E-16 ) ) ;
#235 = ADVANCED_FACE ( 'NONE', ( #168 ), #12, .F. ) ;
#236 = DIRECTION ( 'NONE',  ( 0.0000000000000000000, 1.000000000000000000, 0.0000000000000000000 ) ) ;
#237 = DIRECTION ( 'NONE',  ( -3.491481338843133355E-15, 1.224646799147353207E-16, -1.000000000000000000 ) ) ;
#238 = AXIS2_PLACEMENT_3D ( 'NONE', #85, #31, #53 ) ;
#239 = EDGE_CURVE ( 'NONE', #20, #20, #233, .T. ) ;
#240 = DIRECTION ( 'NONE',  ( -4.256963957985710640E-31, -1.000000000000000000, -1.219242935835426903E-16 ) ) ;
#241 = PLANE ( 'NONE',  #199 ) ;
#242 = CALENDAR_DATE ( 2021, 16, 11 ) ;
#243 = PERSON_AND_ORGANIZATION ( #29, #160 ) ;
ENDSEC;
END-ISO-10303-21;
