ISO-10303-21;
HEADER;
FILE_DESCRIPTION (( 'STEP AP203' ),
    '1' );
FILE_NAME ('964124.step',
    '2021-11-16T14:59:08',
    ( '' ),
    ( '' ),
    'SwSTEP 2.0',
    'SolidWorks 2019',
    '' );
FILE_SCHEMA (( 'CONFIG_CONTROL_DESIGN' ));
ENDSEC;

DATA;
#1 = ORIENTED_EDGE ( 'NONE', *, *, #87, .T. ) ;
#2 = CALENDAR_DATE ( 2021, 16, 11 ) ;
#3 = ORIENTED_EDGE ( 'NONE', *, *, #135, .T. ) ;
#4 = PERSON_AND_ORGANIZATION_ROLE ( 'design_supplier' ) ;
#5 = CC_DESIGN_PERSON_AND_ORGANIZATION_ASSIGNMENT ( #71, #152, ( #204 ) ) ;
#6 = ORIENTED_EDGE ( 'NONE', *, *, #198, .T. ) ;
#7 = EDGE_CURVE ( 'NONE', #47, #47, #170, .T. ) ;
#8 = DATE_AND_TIME ( #77, #143 ) ;
#9 = PLANE ( 'NONE',  #68 ) ;
#10 = AXIS2_PLACEMENT_3D ( 'NONE', #199, #165, #129 ) ;
#11 = DESIGN_CONTEXT ( 'detailed design', #188, 'design' ) ;
#12 = ORGANIZATION ( 'UNSPECIFIED', 'UNSPECIFIED', '' ) ;
#13 = ADVANCED_FACE ( 'NONE', ( #78 ), #9, .F. ) ;
#14 = DIRECTION ( 'NONE',  ( 4.275831445896958607E-31, 1.000000000000000000, 1.224646799147353207E-16 ) ) ;
#15 = AXIS2_PLACEMENT_3D ( 'NONE', #27, #191, #189 ) ;
#16 = ADVANCED_BREP_SHAPE_REPRESENTATION ( '964124', ( #117, #28, #102 ), #193 ) ;
#17 = CARTESIAN_POINT ( 'NONE',  ( 7.506684878512735136E-15, -0.4250000000000001554, 2.149999999999999467 ) ) ;
#18 = CC_DESIGN_PERSON_AND_ORGANIZATION_ASSIGNMENT ( #72, #114, ( #157 ) ) ;
#19 = DIRECTION ( 'NONE',  ( 3.491481338843133355E-15, -1.219242935835426903E-16, 1.000000000000000000 ) ) ;
#20 = CONICAL_SURFACE ( 'NONE', #62, 2.499999999999992895, 0.2617993877991429685 ) ;
#21 = SECURITY_CLASSIFICATION_LEVEL ( 'unclassified' ) ;
#22 = VERTEX_POINT ( 'NONE', #210 ) ;
#23 = EDGE_CURVE ( 'NONE', #184, #184, #215, .T. ) ;
#24 = SHAPE_DEFINITION_REPRESENTATION ( #225, #16 ) ;
#25 = AXIS2_PLACEMENT_3D ( 'NONE', #203, #30, #14 ) ;
#26 = DIRECTION ( 'NONE',  ( 0.0000000000000000000, 1.000000000000000000, 0.0000000000000000000 ) ) ;
#27 = CARTESIAN_POINT ( 'NONE',  ( 7.506684878512735136E-15, -2.621372312046167446E-16, 2.149999999999999467 ) ) ;
#28 = MANIFOLD_SOLID_BREP ( 'Corps-Déplacer/Copier1[2]', #59 ) ;
#29 = FACE_OUTER_BOUND ( 'NONE', #95, .T. ) ;
#30 = DIRECTION ( 'NONE',  ( -3.491481338843133355E-15, 1.224646799147353207E-16, -1.000000000000000000 ) ) ;
#31 = CONICAL_SURFACE ( 'NONE', #75, 1.199999999999993738, 0.7853981633974453924 ) ;
#32 = DIRECTION ( 'NONE',  ( 3.491481338843133355E-15, -1.219242935835426903E-16, 1.000000000000000000 ) ) ;
#33 = CIRCLE ( 'NONE', #15, 0.4249999999999998779 ) ;
#34 = APPROVAL ( #194, 'UNSPECIFIED' ) ;
#35 = CARTESIAN_POINT ( 'NONE',  ( 2.243367403709920068E-14, -7.833952394438591149E-16, 6.425259613311400386 ) ) ;
#36 = APPROVAL_DATE_TIME ( #8, #100 ) ;
#37 = EDGE_LOOP ( 'NONE', ( #1 ) ) ;
#38 = COORDINATED_UNIVERSAL_TIME_OFFSET ( 1, 0, .AHEAD. ) ;
#39 = LOCAL_TIME ( 15, 59, 8.000000000000000000, #158 ) ;
#40 = PERSON_AND_ORGANIZATION ( #239, #12 ) ;
#41 =( LENGTH_UNIT ( ) NAMED_UNIT ( * ) SI_UNIT ( .MILLI., .METRE. ) );
#42 = ORIENTED_EDGE ( 'NONE', *, *, #61, .T. ) ;
#43 = PERSON_AND_ORGANIZATION ( #239, #12 ) ;
#44 = UNCERTAINTY_MEASURE_WITH_UNIT (LENGTH_MEASURE( 1.000000000000000082E-05 ), #41, 'distance_accuracy_value', 'NONE');
#45 = DIRECTION ( 'NONE',  ( 3.491481338843133355E-15, -1.224646799147353207E-16, 1.000000000000000000 ) ) ;
#46 = EDGE_CURVE ( 'NONE', #127, #127, #112, .T. ) ;
#47 = VERTEX_POINT ( 'NONE', #124 ) ;
#48 = CARTESIAN_POINT ( 'NONE',  ( 7.506684878512735136E-15, -4.336808689942017736E-16, 2.149999999999999467 ) ) ;
#49 = FACE_OUTER_BOUND ( 'NONE', #131, .T. ) ;
#50 = FACE_OUTER_BOUND ( 'NONE', #54, .T. ) ;
#51 = ADVANCED_FACE ( 'NONE', ( #105 ), #106, .F. ) ;
#52 = EDGE_LOOP ( 'NONE', ( #3 ) ) ;
#53 = APPROVAL_ROLE ( '' ) ;
#54 = EDGE_LOOP ( 'NONE', ( #207 ) ) ;
#55 = DATE_AND_TIME ( #115, #39 ) ;
#56 = EDGE_LOOP ( 'NONE', ( #172 ) ) ;
#57 = AXIS2_PLACEMENT_3D ( 'NONE', #48, #238, #218 ) ;
#58 = CARTESIAN_POINT ( 'NONE',  ( 1.316288464743861212E-13, 1.499999999999989120, 37.69999999999999574 ) ) ;
#59 = CLOSED_SHELL ( 'NONE', ( #190, #232, #13 ) ) ;
#60 = CC_DESIGN_PERSON_AND_ORGANIZATION_ASSIGNMENT ( #43, #4, ( #147 ) ) ;
#61 = EDGE_CURVE ( 'NONE', #22, #22, #104, .T. ) ;
#62 = AXIS2_PLACEMENT_3D ( 'NONE', #236, #19, #88 ) ;
#63 = FACE_OUTER_BOUND ( 'NONE', #92, .T. ) ;
#64 = CARTESIAN_POINT ( 'NONE',  ( 9.314008610737993095E-15, -0.4931483474218602558, 2.667638090205028512 ) ) ;
#65 = DIRECTION ( 'NONE',  ( -3.491481338843133355E-15, 1.224646799147353207E-16, -1.000000000000000000 ) ) ;
#66 = PRODUCT ( '964124', '964124', '', ( #222 ) ) ;
#67 = CARTESIAN_POINT ( 'NONE',  ( 7.506684878512736714E-15, 1.124819836996384995E-32, 2.149999999999999911 ) ) ;
#68 = AXIS2_PLACEMENT_3D ( 'NONE', #233, #45, #97 ) ;
#69 = ADVANCED_FACE ( 'NONE', ( #82, #128 ), #217, .T. ) ;
#70 = DIRECTION ( 'NONE',  ( -4.256963957985707137E-31, -1.000000000000000000, -1.219242935835425177E-16 ) ) ;
#71 = PERSON_AND_ORGANIZATION ( #239, #12 ) ;
#72 = PERSON_AND_ORGANIZATION ( #239, #12 ) ;
#73 = EDGE_LOOP ( 'NONE', ( #134 ) ) ;
#74 = CALENDAR_DATE ( 2021, 16, 11 ) ;
#75 = AXIS2_PLACEMENT_3D ( 'NONE', #185, #150, #26 ) ;
#76 = EDGE_LOOP ( 'NONE', ( #229 ) ) ;
#77 = CALENDAR_DATE ( 2021, 16, 11 ) ;
#78 = FACE_OUTER_BOUND ( 'NONE', #56, .T. ) ;
#79 = AXIS2_PLACEMENT_3D ( 'NONE', #237, #103, #111 ) ;
#80 = AXIS2_PLACEMENT_3D ( 'NONE', #205, #32, #166 ) ;
#81 = CC_DESIGN_SECURITY_CLASSIFICATION ( #157, ( #147 ) ) ;
#82 = FACE_OUTER_BOUND ( 'NONE', #52, .T. ) ;
#83 = CARTESIAN_POINT ( 'NONE',  ( 1.316288464743861212E-13, -4.616918432785521081E-15, 37.69999999999999574 ) ) ;
#84 = FACE_OUTER_BOUND ( 'NONE', #37, .T. ) ;
#85 = DIRECTION ( 'NONE',  ( -4.275831445896958607E-31, -1.000000000000000000, -1.224646799147353207E-16 ) ) ;
#86 = LOCAL_TIME ( 15, 59, 8.000000000000000000, #153 ) ;
#87 = EDGE_CURVE ( 'NONE', #174, #174, #33, .T. ) ;
#88 = DIRECTION ( 'NONE',  ( 0.0000000000000000000, -1.000000000000000000, 0.0000000000000000000 ) ) ;
#89 = CARTESIAN_POINT ( 'NONE',  ( 0.0000000000000000000, 0.0000000000000000000, 0.0000000000000000000 ) ) ;
#90 = APPLICATION_PROTOCOL_DEFINITION ( 'international standard', 'config_control_design', 1994, #108 ) ;
#91 = CC_DESIGN_APPROVAL ( #100, ( #204 ) ) ;
#92 = EDGE_LOOP ( 'NONE', ( #221 ) ) ;
#93 = COORDINATED_UNIVERSAL_TIME_OFFSET ( 1, 0, .AHEAD. ) ;
#94 = DIRECTION ( 'NONE',  ( 1.000000000000000000, 0.0000000000000000000, 0.0000000000000000000 ) ) ;
#95 = EDGE_LOOP ( 'NONE', ( #154 ) ) ;
#96 = ADVANCED_FACE ( 'NONE', ( #29 ), #146, .F. ) ;
#97 = DIRECTION ( 'NONE',  ( -4.275831445896958607E-31, -1.000000000000000000, -1.224646799147353207E-16 ) ) ;
#98 = ADVANCED_FACE ( 'NONE', ( #201, #49 ), #20, .T. ) ;
#99 = DATE_AND_TIME ( #74, #86 ) ;
#100 = APPROVAL ( #116, 'UNSPECIFIED' ) ;
#101 = AXIS2_PLACEMENT_3D ( 'NONE', #120, #213, #179 ) ;
#102 = AXIS2_PLACEMENT_3D ( 'NONE', #89, #137, #94 ) ;
#103 = DIRECTION ( 'NONE',  ( -3.491481338843133355E-15, 1.224646799147353207E-16, -1.000000000000000000 ) ) ;
#104 = CIRCLE ( 'NONE', #183, 0.4250000000000000444 ) ;
#105 = FACE_OUTER_BOUND ( 'NONE', #151, .T. ) ;
#106 = PLANE ( 'NONE',  #25 ) ;
#107 = ADVANCED_FACE ( 'NONE', ( #84, #63 ), #136, .F. ) ;
#108 = APPLICATION_CONTEXT ( 'configuration controlled 3d designs of mechanical parts and assemblies' ) ;
#109 = CIRCLE ( 'NONE', #79, 1.199999999999993738 ) ;
#110 = DIRECTION ( 'NONE',  ( -3.491481338843133355E-15, 1.224646799147353207E-16, -1.000000000000000000 ) ) ;
#111 = DIRECTION ( 'NONE',  ( 0.0000000000000000000, 1.000000000000000000, 0.0000000000000000000 ) ) ;
#112 = CIRCLE ( 'NONE', #10, 0.4249999999999998779 ) ;
#113 = ORIENTED_EDGE ( 'NONE', *, *, #7, .F. ) ;
#114 = PERSON_AND_ORGANIZATION_ROLE ( 'classification_officer' ) ;
#115 = CALENDAR_DATE ( 2021, 16, 11 ) ;
#116 = APPROVAL_STATUS ( 'not_yet_approved' ) ;
#117 = MANIFOLD_SOLID_BREP ( 'Corps-Déplacer/Copier1[1]', #206 ) ;
#118 =( NAMED_UNIT ( * ) SI_UNIT ( $, .STERADIAN. ) SOLID_ANGLE_UNIT ( ) );
#119 = APPLICATION_PROTOCOL_DEFINITION ( 'international standard', 'config_control_design', 1994, #188 ) ;
#120 = CARTESIAN_POINT ( 'NONE',  ( 9.314008610737993095E-15, -3.252498896847990683E-16, 2.667638090205028512 ) ) ;
#121 = APPROVAL_ROLE ( '' ) ;
#122 = CALENDAR_DATE ( 2021, 16, 11 ) ;
#123 = APPROVAL_DATE_TIME ( #181, #162 ) ;
#124 = CARTESIAN_POINT ( 'NONE',  ( 2.243367403709920068E-14, -1.499999999999992450, 6.425259613311400386 ) ) ;
#125 = AXIS2_PLACEMENT_3D ( 'NONE', #83, #65, #169 ) ;
#126 = APPROVAL_PERSON_ORGANIZATION ( #160, #162, #121 ) ;
#127 = VERTEX_POINT ( 'NONE', #17 ) ;
#128 = FACE_OUTER_BOUND ( 'NONE', #177, .T. ) ;
#129 = DIRECTION ( 'NONE',  ( 0.0000000000000000000, -1.000000000000000000, 0.0000000000000000000 ) ) ;
#130 = PLANE ( 'NONE',  #214 ) ;
#131 = EDGE_LOOP ( 'NONE', ( #175 ) ) ;
#132 = DATE_AND_TIME ( #2, #234 ) ;
#133 = PERSON_AND_ORGANIZATION ( #239, #12 ) ;
#134 = ORIENTED_EDGE ( 'NONE', *, *, #46, .F. ) ;
#135 = EDGE_CURVE ( 'NONE', #195, #195, #178, .T. ) ;
#136 = TOROIDAL_SURFACE ( 'NONE', #57, 2.425000000000000266, 2.000000000000000000 ) ;
#137 = DIRECTION ( 'NONE',  ( 0.0000000000000000000, 0.0000000000000000000, 1.000000000000000000 ) ) ;
#138 = ADVANCED_FACE ( 'NONE', ( #50, #219 ), #31, .T. ) ;
#139 = PERSON_AND_ORGANIZATION ( #239, #12 ) ;
#140 = DIRECTION ( 'NONE',  ( 0.0000000000000000000, -1.000000000000000000, 0.0000000000000000000 ) ) ;
#141 = APPROVAL_STATUS ( 'not_yet_approved' ) ;
#142 = DATE_TIME_ROLE ( 'classification_date' ) ;
#143 = LOCAL_TIME ( 15, 59, 8.000000000000000000, #38 ) ;
#144 = PRODUCT_RELATED_PRODUCT_CATEGORY ( 'detail', '', ( #66 ) ) ;
#145 = DIRECTION ( 'NONE',  ( 3.491481338843133355E-15, -1.224646799147353207E-16, 1.000000000000000000 ) ) ;
#146 = PLANE ( 'NONE',  #161 ) ;
#147 = PRODUCT_DEFINITION_FORMATION_WITH_SPECIFIED_SOURCE ( 'ANY', '', #66, .NOT_KNOWN. ) ;
#148 = FACE_OUTER_BOUND ( 'NONE', #73, .T. ) ;
#149 = DIRECTION ( 'NONE',  ( 4.275831445896958607E-31, 1.000000000000000000, 1.224646799147353207E-16 ) ) ;
#150 = DIRECTION ( 'NONE',  ( -3.491481338843133355E-15, 1.224646799147353207E-16, -1.000000000000000000 ) ) ;
#151 = EDGE_LOOP ( 'NONE', ( #197 ) ) ;
#152 = PERSON_AND_ORGANIZATION_ROLE ( 'creator' ) ;
#153 = COORDINATED_UNIVERSAL_TIME_OFFSET ( 1, 0, .AHEAD. ) ;
#154 = ORIENTED_EDGE ( 'NONE', *, *, #87, .F. ) ;
#155 = CC_DESIGN_DATE_AND_TIME_ASSIGNMENT ( #99, #142, ( #157 ) ) ;
#156 = VERTEX_POINT ( 'NONE', #224 ) ;
#157 = SECURITY_CLASSIFICATION ( '', '', #21 ) ;
#158 = COORDINATED_UNIVERSAL_TIME_OFFSET ( 1, 0, .AHEAD. ) ;
#159 = DIRECTION ( 'NONE',  ( -3.491481338843133355E-15, 1.219242935835426903E-16, -1.000000000000000000 ) ) ;
#160 = PERSON_AND_ORGANIZATION ( #239, #12 ) ;
#161 = AXIS2_PLACEMENT_3D ( 'NONE', #216, #186, #240 ) ;
#162 = APPROVAL ( #141, 'UNSPECIFIED' ) ;
#163 = CC_DESIGN_DATE_AND_TIME_ASSIGNMENT ( #55, #227, ( #204 ) ) ;
#164 = CC_DESIGN_APPROVAL ( #162, ( #157 ) ) ;
#165 = DIRECTION ( 'NONE',  ( 3.491481338843133355E-15, -1.219242935835426903E-16, 1.000000000000000000 ) ) ;
#166 = DIRECTION ( 'NONE',  ( -4.256963957985708889E-31, -1.000000000000000000, -1.219242935835426903E-16 ) ) ;
#167 = DIRECTION ( 'NONE',  ( 3.491481338843133355E-15, -1.219242935835426903E-16, 1.000000000000000000 ) ) ;
#168 = APPROVAL_PERSON_ORGANIZATION ( #133, #34, #231 ) ;
#169 = DIRECTION ( 'NONE',  ( 0.0000000000000000000, 1.000000000000000000, 0.0000000000000000000 ) ) ;
#170 = CIRCLE ( 'NONE', #228, 1.499999999999991562 ) ;
#171 = FACE_OUTER_BOUND ( 'NONE', #76, .T. ) ;
#172 = ORIENTED_EDGE ( 'NONE', *, *, #61, .F. ) ;
#173 = PERSON_AND_ORGANIZATION ( #239, #12 ) ;
#174 = VERTEX_POINT ( 'NONE', #196 ) ;
#175 = ORIENTED_EDGE ( 'NONE', *, *, #7, .T. ) ;
#176 = APPROVAL_DATE_TIME ( #132, #34 ) ;
#177 = EDGE_LOOP ( 'NONE', ( #113 ) ) ;
#178 = CIRCLE ( 'NONE', #125, 1.499999999999993783 ) ;
#179 = DIRECTION ( 'NONE',  ( 0.0000000000000000000, -1.000000000000000000, 0.0000000000000000000 ) ) ;
#180 = COORDINATED_UNIVERSAL_TIME_OFFSET ( 1, 0, .AHEAD. ) ;
#181 = DATE_AND_TIME ( #122, #182 ) ;
#182 = LOCAL_TIME ( 15, 59, 8.000000000000000000, #180 ) ;
#183 = AXIS2_PLACEMENT_3D ( 'NONE', #200, #167, #70 ) ;
#184 = VERTEX_POINT ( 'NONE', #64 ) ;
#185 = CARTESIAN_POINT ( 'NONE',  ( 1.326762908760390423E-13, -4.653657836759941941E-15, 38.00000000000000000 ) ) ;
#186 = DIRECTION ( 'NONE',  ( 3.491481338843133355E-15, -1.224646799147353207E-16, 1.000000000000000000 ) ) ;
#187 = CC_DESIGN_APPROVAL ( #34, ( #147 ) ) ;
#188 = APPLICATION_CONTEXT ( 'configuration controlled 3d designs of mechanical parts and assemblies' ) ;
#189 = DIRECTION ( 'NONE',  ( 0.0000000000000000000, -1.000000000000000000, 0.0000000000000000000 ) ) ;
#190 = ADVANCED_FACE ( 'NONE', ( #171 ), #130, .T. ) ;
#191 = DIRECTION ( 'NONE',  ( 3.491481338843133355E-15, -1.219242935835426903E-16, 1.000000000000000000 ) ) ;
#192 = PERSON_AND_ORGANIZATION_ROLE ( 'design_owner' ) ;
#193 =( GEOMETRIC_REPRESENTATION_CONTEXT ( 3 ) GLOBAL_UNCERTAINTY_ASSIGNED_CONTEXT ( ( #44 ) ) GLOBAL_UNIT_ASSIGNED_CONTEXT ( ( #41, #243, #118 ) ) REPRESENTATION_CONTEXT ( 'NONE', 'WORKASPACE' ) );
#194 = APPROVAL_STATUS ( 'not_yet_approved' ) ;
#195 = VERTEX_POINT ( 'NONE', #58 ) ;
#196 = CARTESIAN_POINT ( 'NONE',  ( 7.506684878512735136E-15, -0.4250000000000001554, 2.149999999999999467 ) ) ;
#197 = ORIENTED_EDGE ( 'NONE', *, *, #198, .F. ) ;
#198 = EDGE_CURVE ( 'NONE', #156, #156, #109, .T. ) ;
#199 = CARTESIAN_POINT ( 'NONE',  ( 7.506684878512735136E-15, -2.621372312046167446E-16, 2.149999999999999467 ) ) ;
#200 = CARTESIAN_POINT ( 'NONE',  ( -3.387805495798940297E-30, 1.183038807277690409E-31, -9.703060583796375981E-16 ) ) ;
#201 = FACE_BOUND ( 'NONE', #242, .T. ) ;
#202 = CARTESIAN_POINT ( 'NONE',  ( 0.0000000000000000000, 0.0000000000000000000, 0.0000000000000000000 ) ) ;
#203 = CARTESIAN_POINT ( 'NONE',  ( 1.326762908760390423E-13, 8.998558695971030697E-33, 38.00000000000000000 ) ) ;
#204 = PRODUCT_DEFINITION ( 'UNKNOWN', '', #147, #11 ) ;
#205 = CARTESIAN_POINT ( 'NONE',  ( 0.0000000000000000000, 0.0000000000000000000, 0.0000000000000000000 ) ) ;
#206 = CLOSED_SHELL ( 'NONE', ( #69, #138, #51, #98, #107, #96 ) ) ;
#207 = ORIENTED_EDGE ( 'NONE', *, *, #135, .F. ) ;
#208 = APPROVAL_PERSON_ORGANIZATION ( #40, #100, #53 ) ;
#209 = EDGE_LOOP ( 'NONE', ( #42 ) ) ;
#210 = CARTESIAN_POINT ( 'NONE',  ( -3.568726464013333496E-30, -0.4250000000000000444, -1.022123883152643187E-15 ) ) ;
#211 = ORIENTED_EDGE ( 'NONE', *, *, #23, .T. ) ;
#212 = PERSON_AND_ORGANIZATION_ROLE ( 'creator' ) ;
#213 = DIRECTION ( 'NONE',  ( 3.491481338843133355E-15, -1.219242935835426903E-16, 1.000000000000000000 ) ) ;
#214 = AXIS2_PLACEMENT_3D ( 'NONE', #67, #145, #85 ) ;
#215 = CIRCLE ( 'NONE', #101, 0.4931483474218599228 ) ;
#216 = CARTESIAN_POINT ( 'NONE',  ( 7.506684878512736714E-15, 1.124819836996384995E-32, 2.149999999999999911 ) ) ;
#217 = CYLINDRICAL_SURFACE ( 'NONE', #223, 1.499999999999991562 ) ;
#218 = DIRECTION ( 'NONE',  ( -4.316975922738838061E-31, -1.000000000000000000, -1.219242935835426903E-16 ) ) ;
#219 = FACE_BOUND ( 'NONE', #226, .T. ) ;
#220 = CYLINDRICAL_SURFACE ( 'NONE', #80, 0.4249999999999999334 ) ;
#221 = ORIENTED_EDGE ( 'NONE', *, *, #23, .F. ) ;
#222 = MECHANICAL_CONTEXT ( 'NONE', #108, 'mechanical' ) ;
#223 = AXIS2_PLACEMENT_3D ( 'NONE', #202, #110, #149 ) ;
#224 = CARTESIAN_POINT ( 'NONE',  ( 1.326762908760390423E-13, 1.199999999999989297, 38.00000000000000000 ) ) ;
#225 = PRODUCT_DEFINITION_SHAPE ( 'NONE', 'NONE',  #204 ) ;
#226 = EDGE_LOOP ( 'NONE', ( #6 ) ) ;
#227 = DATE_TIME_ROLE ( 'creation_date' ) ;
#228 = AXIS2_PLACEMENT_3D ( 'NONE', #35, #159, #140 ) ;
#229 = ORIENTED_EDGE ( 'NONE', *, *, #46, .T. ) ;
#230 = CC_DESIGN_PERSON_AND_ORGANIZATION_ASSIGNMENT ( #173, #192, ( #66 ) ) ;
#231 = APPROVAL_ROLE ( '' ) ;
#232 = ADVANCED_FACE ( 'NONE', ( #241, #148 ), #220, .T. ) ;
#233 = CARTESIAN_POINT ( 'NONE',  ( -1.282754905350004587E-30, 4.499298539707956128E-32, -3.673956068672651857E-16 ) ) ;
#234 = LOCAL_TIME ( 15, 59, 8.000000000000000000, #93 ) ;
#235 = CC_DESIGN_PERSON_AND_ORGANIZATION_ASSIGNMENT ( #139, #212, ( #147 ) ) ;
#236 = CARTESIAN_POINT ( 'NONE',  ( 3.546405978734073479E-14, -1.238422897774596749E-15, 10.15731042088037839 ) ) ;
#237 = CARTESIAN_POINT ( 'NONE',  ( 1.326762908760390423E-13, -4.653657836759941941E-15, 38.00000000000000000 ) ) ;
#238 = DIRECTION ( 'NONE',  ( 3.491481338843133355E-15, -1.219242935835426903E-16, 1.000000000000000000 ) ) ;
#239 = PERSON ( 'UNSPECIFIED', 'UNSPECIFIED', 'UNSPECIFIED', ('UNSPECIFIED'), ('UNSPECIFIED'), ('UNSPECIFIED') ) ;
#240 = DIRECTION ( 'NONE',  ( -4.275831445896958607E-31, -1.000000000000000000, -1.224646799147353207E-16 ) ) ;
#241 = FACE_OUTER_BOUND ( 'NONE', #209, .T. ) ;
#242 = EDGE_LOOP ( 'NONE', ( #211 ) ) ;
#243 =( NAMED_UNIT ( * ) PLANE_ANGLE_UNIT ( ) SI_UNIT ( $, .RADIAN. ) );
ENDSEC;
END-ISO-10303-21;
