ISO-10303-21;
HEADER;
FILE_DESCRIPTION (( 'STEP AP203' ),
    '1' );
FILE_NAME ('964123.step',
    '2021-11-16T14:59:07',
    ( '' ),
    ( '' ),
    'SwSTEP 2.0',
    'SolidWorks 2019',
    '' );
FILE_SCHEMA (( 'CONFIG_CONTROL_DESIGN' ));
ENDSEC;

DATA;
#1 = DIRECTION ( 'NONE',  ( -3.491481338843133355E-15, 1.219242935835426903E-16, -1.000000000000000000 ) ) ;
#2 = CARTESIAN_POINT ( 'NONE',  ( -3.547441644223404720E-30, -0.3999999999999999667, -1.016027668473466280E-15 ) ) ;
#3 = CIRCLE ( 'NONE', #231, 1.499999999999991562 ) ;
#4 = CARTESIAN_POINT ( 'NONE',  ( 6.982962677686265133E-15, -4.336808689942017736E-16, 1.999999999999999556 ) ) ;
#5 = FACE_OUTER_BOUND ( 'NONE', #68, .T. ) ;
#6 = CALENDAR_DATE ( 2021, 16, 11 ) ;
#7 = DIRECTION ( 'NONE',  ( 1.000000000000000000, 0.0000000000000000000, 0.0000000000000000000 ) ) ;
#8 = APPROVAL_ROLE ( '' ) ;
#9 = PERSON_AND_ORGANIZATION_ROLE ( 'classification_officer' ) ;
#10 = LOCAL_TIME ( 15, 59, 7.000000000000000000, #82 ) ;
#11 = AXIS2_PLACEMENT_3D ( 'NONE', #108, #85, #129 ) ;
#12 = DIRECTION ( 'NONE',  ( 0.0000000000000000000, 1.000000000000000000, 0.0000000000000000000 ) ) ;
#13 = EDGE_LOOP ( 'NONE', ( #217 ) ) ;
#14 =( GEOMETRIC_REPRESENTATION_CONTEXT ( 3 ) GLOBAL_UNCERTAINTY_ASSIGNED_CONTEXT ( ( #136 ) ) GLOBAL_UNIT_ASSIGNED_CONTEXT ( ( #201, #182, #94 ) ) REPRESENTATION_CONTEXT ( 'NONE', 'WORKASPACE' ) );
#15 = ADVANCED_FACE ( 'NONE', ( #176, #178 ), #144, .T. ) ;
#16 = ORIENTED_EDGE ( 'NONE', *, *, #113, .F. ) ;
#17 = ORIENTED_EDGE ( 'NONE', *, *, #113, .T. ) ;
#18 = CARTESIAN_POINT ( 'NONE',  ( 6.982962677686265133E-15, -0.3999999999999997446, 1.999999999999999556 ) ) ;
#19 = APPLICATION_CONTEXT ( 'configuration controlled 3d designs of mechanical parts and assemblies' ) ;
#20 = EDGE_CURVE ( 'NONE', #34, #34, #168, .T. ) ;
#21 = DIRECTION ( 'NONE',  ( -3.491481338843133355E-15, 1.224646799147353207E-16, -1.000000000000000000 ) ) ;
#22 = PLANE ( 'NONE',  #163 ) ;
#23 = APPROVAL_ROLE ( '' ) ;
#24 = CONICAL_SURFACE ( 'NONE', #105, 1.199999999999993738, 0.7853981633974453924 ) ;
#25 = PERSON_AND_ORGANIZATION ( #95, #118 ) ;
#26 = CALENDAR_DATE ( 2021, 16, 11 ) ;
#27 = CC_DESIGN_APPROVAL ( #173, ( #236 ) ) ;
#28 = EDGE_LOOP ( 'NONE', ( #179 ) ) ;
#29 = CARTESIAN_POINT ( 'NONE',  ( -3.377163085903975909E-30, 1.179322423936229069E-31, -9.672579510400490456E-16 ) ) ;
#30 = EDGE_LOOP ( 'NONE', ( #17 ) ) ;
#31 = ADVANCED_FACE ( 'NONE', ( #238 ), #110, .T. ) ;
#32 = EDGE_LOOP ( 'NONE', ( #196 ) ) ;
#33 = EDGE_LOOP ( 'NONE', ( #125 ) ) ;
#34 = VERTEX_POINT ( 'NONE', #18 ) ;
#35 = DIRECTION ( 'NONE',  ( -3.491481338843133355E-15, 1.224646799147353207E-16, -1.000000000000000000 ) ) ;
#36 = FACE_BOUND ( 'NONE', #112, .T. ) ;
#37 = DIRECTION ( 'NONE',  ( 0.0000000000000000000, -1.000000000000000000, 0.0000000000000000000 ) ) ;
#38 = VERTEX_POINT ( 'NONE', #117 ) ;
#39 = LOCAL_TIME ( 15, 59, 7.000000000000000000, #65 ) ;
#40 = APPROVAL_STATUS ( 'not_yet_approved' ) ;
#41 = PERSON_AND_ORGANIZATION_ROLE ( 'design_owner' ) ;
#42 = CALENDAR_DATE ( 2021, 16, 11 ) ;
#43 = COORDINATED_UNIVERSAL_TIME_OFFSET ( 1, 0, .AHEAD. ) ;
#44 = DATE_TIME_ROLE ( 'creation_date' ) ;
#45 = SECURITY_CLASSIFICATION ( '', '', #139 ) ;
#46 = CLOSED_SHELL ( 'NONE', ( #31, #15, #149 ) ) ;
#47 = DIRECTION ( 'NONE',  ( 3.491481338843133355E-15, -1.219242935835426903E-16, 1.000000000000000000 ) ) ;
#48 = EDGE_LOOP ( 'NONE', ( #16 ) ) ;
#49 = EDGE_LOOP ( 'NONE', ( #159 ) ) ;
#50 = CIRCLE ( 'NONE', #160, 1.199999999999993738 ) ;
#51 = ORIENTED_EDGE ( 'NONE', *, *, #157, .T. ) ;
#52 = FACE_OUTER_BOUND ( 'NONE', #69, .T. ) ;
#53 = APPLICATION_CONTEXT ( 'configuration controlled 3d designs of mechanical parts and assemblies' ) ;
#54 = DIRECTION ( 'NONE',  ( 3.491481338843133355E-15, -1.219242935835426903E-16, 1.000000000000000000 ) ) ;
#55 = CIRCLE ( 'NONE', #61, 0.3999999999999995226 ) ;
#56 = DIRECTION ( 'NONE',  ( 4.275831445896958607E-31, 1.000000000000000000, 1.224646799147353207E-16 ) ) ;
#57 = ADVANCED_FACE ( 'NONE', ( #240, #71 ), #215, .T. ) ;
#58 = AXIS2_PLACEMENT_3D ( 'NONE', #216, #47, #219 ) ;
#59 = FACE_OUTER_BOUND ( 'NONE', #28, .T. ) ;
#60 = APPROVAL_STATUS ( 'not_yet_approved' ) ;
#61 = AXIS2_PLACEMENT_3D ( 'NONE', #75, #74, #205 ) ;
#62 = CC_DESIGN_PERSON_AND_ORGANIZATION_ASSIGNMENT ( #122, #152, ( #236 ) ) ;
#63 = APPROVAL_STATUS ( 'not_yet_approved' ) ;
#64 = DATE_AND_TIME ( #42, #211 ) ;
#65 = COORDINATED_UNIVERSAL_TIME_OFFSET ( 1, 0, .AHEAD. ) ;
#66 = EDGE_CURVE ( 'NONE', #91, #91, #107, .T. ) ;
#67 = DIRECTION ( 'NONE',  ( -4.275831445896958607E-31, -1.000000000000000000, -1.224646799147353207E-16 ) ) ;
#68 = EDGE_LOOP ( 'NONE', ( #214 ) ) ;
#69 = EDGE_LOOP ( 'NONE', ( #70 ) ) ;
#70 = ORIENTED_EDGE ( 'NONE', *, *, #145, .F. ) ;
#71 = FACE_OUTER_BOUND ( 'NONE', #86, .T. ) ;
#72 = VERTEX_POINT ( 'NONE', #135 ) ;
#73 = AXIS2_PLACEMENT_3D ( 'NONE', #177, #195, #90 ) ;
#74 = DIRECTION ( 'NONE',  ( 3.491481338843133355E-15, -1.219242935835426903E-16, 1.000000000000000000 ) ) ;
#75 = CARTESIAN_POINT ( 'NONE',  ( 6.982962677686265133E-15, -2.438485871670853312E-16, 1.999999999999999556 ) ) ;
#76 = CARTESIAN_POINT ( 'NONE',  ( 0.0000000000000000000, 0.0000000000000000000, 0.0000000000000000000 ) ) ;
#77 = DIRECTION ( 'NONE',  ( -4.256963957985706261E-31, -1.000000000000000000, -1.219242935835428382E-16 ) ) ;
#78 = DATE_AND_TIME ( #6, #228 ) ;
#79 = TOROIDAL_SURFACE ( 'NONE', #174, 2.400000000000000355, 2.000000000000000000 ) ;
#80 = ADVANCED_FACE ( 'NONE', ( #158 ), #235, .F. ) ;
#81 = APPROVAL_DATE_TIME ( #101, #165 ) ;
#82 = COORDINATED_UNIVERSAL_TIME_OFFSET ( 1, 0, .AHEAD. ) ;
#83 = APPROVAL_PERSON_ORGANIZATION ( #25, #165, #8 ) ;
#84 = PERSON_AND_ORGANIZATION ( #95, #118 ) ;
#85 = DIRECTION ( 'NONE',  ( 3.491481338843133355E-15, -1.219242935835426903E-16, 1.000000000000000000 ) ) ;
#86 = EDGE_LOOP ( 'NONE', ( #197 ) ) ;
#87 = APPROVAL_PERSON_ORGANIZATION ( #208, #199, #23 ) ;
#88 = EDGE_LOOP ( 'NONE', ( #193 ) ) ;
#89 = CARTESIAN_POINT ( 'NONE',  ( 6.982962677686265133E-15, -2.438485871670853312E-16, 1.999999999999999556 ) ) ;
#90 = DIRECTION ( 'NONE',  ( -4.275831445896958607E-31, -1.000000000000000000, -1.224646799147353207E-16 ) ) ;
#91 = VERTEX_POINT ( 'NONE', #225 ) ;
#92 = CARTESIAN_POINT ( 'NONE',  ( 8.790286409911523091E-15, -3.069612456472676549E-16, 2.517638090205028600 ) ) ;
#93 = AXIS2_PLACEMENT_3D ( 'NONE', #106, #175, #12 ) ;
#94 =( NAMED_UNIT ( * ) SI_UNIT ( $, .STERADIAN. ) SOLID_ANGLE_UNIT ( ) );
#95 = PERSON ( 'UNSPECIFIED', 'UNSPECIFIED', 'UNSPECIFIED', ('UNSPECIFIED'), ('UNSPECIFIED'), ('UNSPECIFIED') ) ;
#96 = PLANE ( 'NONE',  #142 ) ;
#97 = LOCAL_TIME ( 15, 59, 7.000000000000000000, #43 ) ;
#98 = DIRECTION ( 'NONE',  ( -3.491481338843133355E-15, 1.224646799147353207E-16, -1.000000000000000000 ) ) ;
#99 = APPROVAL_ROLE ( '' ) ;
#100 = CC_DESIGN_DATE_AND_TIME_ASSIGNMENT ( #64, #44, ( #185 ) ) ;
#101 = DATE_AND_TIME ( #189, #10 ) ;
#102 = EDGE_CURVE ( 'NONE', #148, #148, #133, .T. ) ;
#103 = PERSON_AND_ORGANIZATION ( #95, #118 ) ;
#104 = DATE_AND_TIME ( #26, #39 ) ;
#105 = AXIS2_PLACEMENT_3D ( 'NONE', #180, #98, #131 ) ;
#106 = CARTESIAN_POINT ( 'NONE',  ( 1.316288464743861212E-13, -4.616918432785521081E-15, 37.69999999999999574 ) ) ;
#107 = CIRCLE ( 'NONE', #93, 1.499999999999993783 ) ;
#108 = CARTESIAN_POINT ( 'NONE',  ( 0.0000000000000000000, 0.0000000000000000000, 0.0000000000000000000 ) ) ;
#109 = ADVANCED_FACE ( 'NONE', ( #52 ), #22, .F. ) ;
#110 = PLANE ( 'NONE',  #73 ) ;
#111 = AXIS2_PLACEMENT_3D ( 'NONE', #233, #126, #67 ) ;
#112 = EDGE_LOOP ( 'NONE', ( #141 ) ) ;
#113 = EDGE_CURVE ( 'NONE', #243, #243, #55, .T. ) ;
#114 = CARTESIAN_POINT ( 'NONE',  ( -1.282754905350004587E-30, 4.499298539707956128E-32, -3.673956068672651857E-16 ) ) ;
#115 = CARTESIAN_POINT ( 'NONE',  ( 6.982962677686265133E-15, -0.3999999999999997446, 1.999999999999999556 ) ) ;
#116 = DIRECTION ( 'NONE',  ( 3.491481338843133355E-15, -1.224646799147353207E-16, 1.000000000000000000 ) ) ;
#117 = CARTESIAN_POINT ( 'NONE',  ( 8.790286409911523091E-15, -0.4681483474218604002, 2.517638090205028600 ) ) ;
#118 = ORGANIZATION ( 'UNSPECIFIED', 'UNSPECIFIED', '' ) ;
#119 = DESIGN_CONTEXT ( 'detailed design', #53, 'design' ) ;
#120 = PERSON_AND_ORGANIZATION ( #95, #118 ) ;
#121 = DATE_AND_TIME ( #192, #97 ) ;
#122 = PERSON_AND_ORGANIZATION ( #95, #118 ) ;
#123 = CC_DESIGN_SECURITY_CLASSIFICATION ( #45, ( #236 ) ) ;
#124 = EDGE_CURVE ( 'NONE', #72, #72, #3, .T. ) ;
#125 = ORIENTED_EDGE ( 'NONE', *, *, #124, .F. ) ;
#126 = DIRECTION ( 'NONE',  ( 3.491481338843133355E-15, -1.224646799147353207E-16, 1.000000000000000000 ) ) ;
#127 = EDGE_LOOP ( 'NONE', ( #51 ) ) ;
#128 = CC_DESIGN_DATE_AND_TIME_ASSIGNMENT ( #104, #172, ( #45 ) ) ;
#129 = DIRECTION ( 'NONE',  ( -4.256963957985708889E-31, -1.000000000000000000, -1.219242935835426903E-16 ) ) ;
#130 = DIRECTION ( 'NONE',  ( -3.491481338843133355E-15, 1.224646799147353207E-16, -1.000000000000000000 ) ) ;
#131 = DIRECTION ( 'NONE',  ( 0.0000000000000000000, 1.000000000000000000, 0.0000000000000000000 ) ) ;
#132 = DIRECTION ( 'NONE',  ( -4.275831445896958607E-31, -1.000000000000000000, -1.224646799147353207E-16 ) ) ;
#133 = CIRCLE ( 'NONE', #207, 0.3999999999999999667 ) ;
#134 = CARTESIAN_POINT ( 'NONE',  ( 2.223571148002876572E-14, -7.764822868645960388E-16, 6.368560883500624215 ) ) ;
#135 = CARTESIAN_POINT ( 'NONE',  ( 2.223571148002876572E-14, -1.499999999999992450, 6.368560883500624215 ) ) ;
#136 = UNCERTAINTY_MEASURE_WITH_UNIT (LENGTH_MEASURE( 1.000000000000000082E-05 ), #201, 'distance_accuracy_value', 'NONE');
#137 = PERSON_AND_ORGANIZATION ( #95, #118 ) ;
#138 = PERSON_AND_ORGANIZATION_ROLE ( 'creator' ) ;
#139 = SECURITY_CLASSIFICATION_LEVEL ( 'unclassified' ) ;
#140 = CARTESIAN_POINT ( 'NONE',  ( 0.0000000000000000000, 0.0000000000000000000, 0.0000000000000000000 ) ) ;
#141 = ORIENTED_EDGE ( 'NONE', *, *, #145, .T. ) ;
#142 = AXIS2_PLACEMENT_3D ( 'NONE', #114, #116, #132 ) ;
#143 = EDGE_LOOP ( 'NONE', ( #237 ) ) ;
#144 = CYLINDRICAL_SURFACE ( 'NONE', #11, 0.3999999999999997446 ) ;
#145 = EDGE_CURVE ( 'NONE', #224, #224, #50, .T. ) ;
#146 = DIRECTION ( 'NONE',  ( 0.0000000000000000000, -1.000000000000000000, 0.0000000000000000000 ) ) ;
#147 = FACE_OUTER_BOUND ( 'NONE', #13, .T. ) ;
#148 = VERTEX_POINT ( 'NONE', #2 ) ;
#149 = ADVANCED_FACE ( 'NONE', ( #5 ), #96, .F. ) ;
#150 = FACE_OUTER_BOUND ( 'NONE', #32, .T. ) ;
#151 = APPROVAL_DATE_TIME ( #78, #199 ) ;
#152 = PERSON_AND_ORGANIZATION_ROLE ( 'design_supplier' ) ;
#153 = APPLICATION_PROTOCOL_DEFINITION ( 'international standard', 'config_control_design', 1994, #19 ) ;
#154 = APPROVAL_DATE_TIME ( #121, #173 ) ;
#155 = CC_DESIGN_APPROVAL ( #165, ( #185 ) ) ;
#156 = APPLICATION_PROTOCOL_DEFINITION ( 'international standard', 'config_control_design', 1994, #53 ) ;
#157 = EDGE_CURVE ( 'NONE', #38, #38, #188, .T. ) ;
#158 = FACE_OUTER_BOUND ( 'NONE', #143, .T. ) ;
#159 = ORIENTED_EDGE ( 'NONE', *, *, #102, .T. ) ;
#160 = AXIS2_PLACEMENT_3D ( 'NONE', #167, #21, #164 ) ;
#161 = PRODUCT ( '964123', '964123', '', ( #170 ) ) ;
#162 = DIRECTION ( 'NONE',  ( 3.491481338843133355E-15, -1.219242935835426903E-16, 1.000000000000000000 ) ) ;
#163 = AXIS2_PLACEMENT_3D ( 'NONE', #221, #130, #56 ) ;
#164 = DIRECTION ( 'NONE',  ( 0.0000000000000000000, 1.000000000000000000, 0.0000000000000000000 ) ) ;
#165 = APPROVAL ( #60, 'UNSPECIFIED' ) ;
#166 = CYLINDRICAL_SURFACE ( 'NONE', #194, 1.499999999999991562 ) ;
#167 = CARTESIAN_POINT ( 'NONE',  ( 1.326762908760390423E-13, -4.653657836759941941E-15, 38.00000000000000000 ) ) ;
#168 = CIRCLE ( 'NONE', #232, 0.3999999999999995226 ) ;
#169 = COORDINATED_UNIVERSAL_TIME_OFFSET ( 1, 0, .AHEAD. ) ;
#170 = MECHANICAL_CONTEXT ( 'NONE', #19, 'mechanical' ) ;
#171 = DIRECTION ( 'NONE',  ( 0.0000000000000000000, 0.0000000000000000000, 1.000000000000000000 ) ) ;
#172 = DATE_TIME_ROLE ( 'classification_date' ) ;
#173 = APPROVAL ( #63, 'UNSPECIFIED' ) ;
#174 = AXIS2_PLACEMENT_3D ( 'NONE', #4, #203, #200 ) ;
#175 = DIRECTION ( 'NONE',  ( -3.491481338843133355E-15, 1.224646799147353207E-16, -1.000000000000000000 ) ) ;
#176 = FACE_OUTER_BOUND ( 'NONE', #49, .T. ) ;
#177 = CARTESIAN_POINT ( 'NONE',  ( 6.982962677686266711E-15, 1.124819836996384995E-32, 2.000000000000000000 ) ) ;
#178 = FACE_OUTER_BOUND ( 'NONE', #48, .T. ) ;
#179 = ORIENTED_EDGE ( 'NONE', *, *, #20, .T. ) ;
#180 = CARTESIAN_POINT ( 'NONE',  ( 1.326762908760390423E-13, -4.653657836759941941E-15, 38.00000000000000000 ) ) ;
#181 = ADVANCED_FACE ( 'NONE', ( #150, #184 ), #166, .T. ) ;
#182 =( NAMED_UNIT ( * ) PLANE_ANGLE_UNIT ( ) SI_UNIT ( $, .RADIAN. ) );
#183 = CLOSED_SHELL ( 'NONE', ( #181, #218, #109, #57, #227, #80 ) ) ;
#184 = FACE_OUTER_BOUND ( 'NONE', #33, .T. ) ;
#185 = PRODUCT_DEFINITION ( 'UNKNOWN', '', #236, #119 ) ;
#186 = FACE_OUTER_BOUND ( 'NONE', #88, .T. ) ;
#187 = MANIFOLD_SOLID_BREP ( 'Corps-Déplacer/Copier1[2]', #46 ) ;
#188 = CIRCLE ( 'NONE', #223, 0.4681483474218601226 ) ;
#189 = CALENDAR_DATE ( 2021, 16, 11 ) ;
#190 = MANIFOLD_SOLID_BREP ( 'Corps-Déplacer/Copier1[1]', #183 ) ;
#191 = APPROVAL_PERSON_ORGANIZATION ( #210, #173, #99 ) ;
#192 = CALENDAR_DATE ( 2021, 16, 11 ) ;
#193 = ORIENTED_EDGE ( 'NONE', *, *, #157, .F. ) ;
#194 = AXIS2_PLACEMENT_3D ( 'NONE', #76, #35, #226 ) ;
#195 = DIRECTION ( 'NONE',  ( 3.491481338843133355E-15, -1.224646799147353207E-16, 1.000000000000000000 ) ) ;
#196 = ORIENTED_EDGE ( 'NONE', *, *, #66, .T. ) ;
#197 = ORIENTED_EDGE ( 'NONE', *, *, #124, .T. ) ;
#198 = DIRECTION ( 'NONE',  ( 0.0000000000000000000, -1.000000000000000000, 0.0000000000000000000 ) ) ;
#199 = APPROVAL ( #40, 'UNSPECIFIED' ) ;
#200 = DIRECTION ( 'NONE',  ( -4.317316899811299520E-31, -1.000000000000000000, -1.219242935835426903E-16 ) ) ;
#201 =( LENGTH_UNIT ( ) NAMED_UNIT ( * ) SI_UNIT ( .MILLI., .METRE. ) );
#202 = CC_DESIGN_APPROVAL ( #199, ( #45 ) ) ;
#203 = DIRECTION ( 'NONE',  ( 3.491481338843133355E-15, -1.219242935835426903E-16, 1.000000000000000000 ) ) ;
#204 = CC_DESIGN_PERSON_AND_ORGANIZATION_ASSIGNMENT ( #103, #9, ( #45 ) ) ;
#205 = DIRECTION ( 'NONE',  ( 0.0000000000000000000, -1.000000000000000000, 0.0000000000000000000 ) ) ;
#206 = CARTESIAN_POINT ( 'NONE',  ( 1.326762908760390423E-13, 1.199999999999989297, 38.00000000000000000 ) ) ;
#207 = AXIS2_PLACEMENT_3D ( 'NONE', #29, #54, #77 ) ;
#208 = PERSON_AND_ORGANIZATION ( #95, #118 ) ;
#209 = CC_DESIGN_PERSON_AND_ORGANIZATION_ASSIGNMENT ( #120, #230, ( #185 ) ) ;
#210 = PERSON_AND_ORGANIZATION ( #95, #118 ) ;
#211 = LOCAL_TIME ( 15, 59, 7.000000000000000000, #213 ) ;
#212 = CC_DESIGN_PERSON_AND_ORGANIZATION_ASSIGNMENT ( #84, #41, ( #161 ) ) ;
#213 = COORDINATED_UNIVERSAL_TIME_OFFSET ( 1, 0, .AHEAD. ) ;
#214 = ORIENTED_EDGE ( 'NONE', *, *, #102, .F. ) ;
#215 = CONICAL_SURFACE ( 'NONE', #58, 2.499999999999992895, 0.2617993877991429685 ) ;
#216 = CARTESIAN_POINT ( 'NONE',  ( 3.526609723027030298E-14, -1.231509945195333968E-15, 10.10061169106960399 ) ) ;
#217 = ORIENTED_EDGE ( 'NONE', *, *, #66, .F. ) ;
#218 = ADVANCED_FACE ( 'NONE', ( #147, #36 ), #24, .T. ) ;
#219 = DIRECTION ( 'NONE',  ( 0.0000000000000000000, -1.000000000000000000, 0.0000000000000000000 ) ) ;
#220 = DIRECTION ( 'NONE',  ( 3.491481338843133355E-15, -1.219242935835426903E-16, 1.000000000000000000 ) ) ;
#221 = CARTESIAN_POINT ( 'NONE',  ( 1.326762908760390423E-13, 8.998558695971030697E-33, 38.00000000000000000 ) ) ;
#222 = PRODUCT_DEFINITION_SHAPE ( 'NONE', 'NONE',  #185 ) ;
#223 = AXIS2_PLACEMENT_3D ( 'NONE', #92, #220, #146 ) ;
#224 = VERTEX_POINT ( 'NONE', #206 ) ;
#225 = CARTESIAN_POINT ( 'NONE',  ( 1.316288464743861212E-13, 1.499999999999989120, 37.69999999999999574 ) ) ;
#226 = DIRECTION ( 'NONE',  ( 4.275831445896958607E-31, 1.000000000000000000, 1.224646799147353207E-16 ) ) ;
#227 = ADVANCED_FACE ( 'NONE', ( #59, #186 ), #79, .F. ) ;
#228 = LOCAL_TIME ( 15, 59, 7.000000000000000000, #169 ) ;
#229 = SHAPE_DEFINITION_REPRESENTATION ( #222, #242 ) ;
#230 = PERSON_AND_ORGANIZATION_ROLE ( 'creator' ) ;
#231 = AXIS2_PLACEMENT_3D ( 'NONE', #134, #1, #37 ) ;
#232 = AXIS2_PLACEMENT_3D ( 'NONE', #89, #162, #198 ) ;
#233 = CARTESIAN_POINT ( 'NONE',  ( 6.982962677686266711E-15, 1.124819836996384995E-32, 2.000000000000000000 ) ) ;
#234 = CC_DESIGN_PERSON_AND_ORGANIZATION_ASSIGNMENT ( #137, #138, ( #236 ) ) ;
#235 = PLANE ( 'NONE',  #111 ) ;
#236 = PRODUCT_DEFINITION_FORMATION_WITH_SPECIFIED_SOURCE ( 'ANY', '', #161, .NOT_KNOWN. ) ;
#237 = ORIENTED_EDGE ( 'NONE', *, *, #20, .F. ) ;
#238 = FACE_OUTER_BOUND ( 'NONE', #30, .T. ) ;
#239 = PRODUCT_RELATED_PRODUCT_CATEGORY ( 'detail', '', ( #161 ) ) ;
#240 = FACE_BOUND ( 'NONE', #127, .T. ) ;
#241 = AXIS2_PLACEMENT_3D ( 'NONE', #140, #171, #7 ) ;
#242 = ADVANCED_BREP_SHAPE_REPRESENTATION ( '964123', ( #190, #187, #241 ), #14 ) ;
#243 = VERTEX_POINT ( 'NONE', #115 ) ;
ENDSEC;
END-ISO-10303-21;
