ISO-10303-21;
HEADER;
FILE_DESCRIPTION (( 'STEP AP203' ),
    '1' );
FILE_NAME ('964122.step',
    '2021-11-16T14:59:07',
    ( '' ),
    ( '' ),
    'SwSTEP 2.0',
    'SolidWorks 2019',
    '' );
FILE_SCHEMA (( 'CONFIG_CONTROL_DESIGN' ));
ENDSEC;

DATA;
#1 = CARTESIAN_POINT ( 'NONE',  ( 8.441138276027208178E-15, -0.4431483474218600449, 2.417638090205028067 ) ) ;
#2 = APPROVAL ( #147, 'UNSPECIFIED' ) ;
#3 = EDGE_LOOP ( 'NONE', ( #154 ) ) ;
#4 = AXIS2_PLACEMENT_3D ( 'NONE', #111, #70, #208 ) ;
#5 = FACE_OUTER_BOUND ( 'NONE', #68, .T. ) ;
#6 = DIRECTION ( 'NONE',  ( -4.317661773764587743E-31, -1.000000000000000000, -1.219242935835426903E-16 ) ) ;
#7 = ADVANCED_FACE ( 'NONE', ( #139 ), #149, .F. ) ;
#8 = COORDINATED_UNIVERSAL_TIME_OFFSET ( 1, 0, .AHEAD. ) ;
#9 = DIRECTION ( 'NONE',  ( -4.275831445896958607E-31, -1.000000000000000000, -1.224646799147353207E-16 ) ) ;
#10 = APPROVAL_PERSON_ORGANIZATION ( #226, #2, #145 ) ;
#11 = DIRECTION ( 'NONE',  ( 3.491481338843133355E-15, -1.224646799147353207E-16, 1.000000000000000000 ) ) ;
#12 = DIRECTION ( 'NONE',  ( -3.491481338843133355E-15, 1.224646799147353207E-16, -1.000000000000000000 ) ) ;
#13 = VERTEX_POINT ( 'NONE', #198 ) ;
#14 = CC_DESIGN_APPROVAL ( #2, ( #82 ) ) ;
#15 = DIRECTION ( 'NONE',  ( 3.491481338843133355E-15, -1.219242935835426903E-16, 1.000000000000000000 ) ) ;
#16 = CIRCLE ( 'NONE', #77, 0.3749999999999996669 ) ;
#17 = CARTESIAN_POINT ( 'NONE',  ( 2.221232298990049689E-14, -1.499999999999992450, 6.361862153689850530 ) ) ;
#18 = COORDINATED_UNIVERSAL_TIME_OFFSET ( 1, 0, .AHEAD. ) ;
#19 = AXIS2_PLACEMENT_3D ( 'NONE', #234, #175, #55 ) ;
#20 = DATE_AND_TIME ( #122, #138 ) ;
#21 = ORIENTED_EDGE ( 'NONE', *, *, #57, .F. ) ;
#22 = CC_DESIGN_DATE_AND_TIME_ASSIGNMENT ( #233, #109, ( #237 ) ) ;
#23 =( NAMED_UNIT ( * ) SI_UNIT ( $, .STERADIAN. ) SOLID_ANGLE_UNIT ( ) );
#24 = PLANE ( 'NONE',  #19 ) ;
#25 = DIRECTION ( 'NONE',  ( 0.0000000000000000000, -1.000000000000000000, 0.0000000000000000000 ) ) ;
#26 = DIRECTION ( 'NONE',  ( 4.275831445896958607E-31, 1.000000000000000000, 1.224646799147353207E-16 ) ) ;
#27 = PERSON_AND_ORGANIZATION ( #224, #168 ) ;
#28 = PERSON_AND_ORGANIZATION ( #224, #168 ) ;
#29 = CONICAL_SURFACE ( 'NONE', #222, 2.499999999999992895, 0.2617993877991428575 ) ;
#30 = DIRECTION ( 'NONE',  ( -3.491481338843133355E-15, 1.219242935835426903E-16, -1.000000000000000000 ) ) ;
#31 = DATE_AND_TIME ( #212, #242 ) ;
#32 = CC_DESIGN_PERSON_AND_ORGANIZATION_ASSIGNMENT ( #27, #232, ( #89 ) ) ;
#33 = PERSON_AND_ORGANIZATION ( #224, #168 ) ;
#34 = DIRECTION ( 'NONE',  ( 3.491481338843133355E-15, -1.224646799147353207E-16, 1.000000000000000000 ) ) ;
#35 = COORDINATED_UNIVERSAL_TIME_OFFSET ( 1, 0, .AHEAD. ) ;
#36 = CARTESIAN_POINT ( 'NONE',  ( 1.326762908760390423E-13, 1.199999999999989297, 38.00000000000000000 ) ) ;
#37 = CIRCLE ( 'NONE', #227, 1.199999999999993738 ) ;
#38 = FACE_OUTER_BOUND ( 'NONE', #86, .T. ) ;
#39 = ADVANCED_FACE ( 'NONE', ( #180 ), #130, .T. ) ;
#40 = DIRECTION ( 'NONE',  ( -4.256963957985708889E-31, -1.000000000000000000, -1.219242935835426903E-16 ) ) ;
#41 = DIRECTION ( 'NONE',  ( 1.000000000000000000, 0.0000000000000000000, 0.0000000000000000000 ) ) ;
#42 = EDGE_LOOP ( 'NONE', ( #137 ) ) ;
#43 = CC_DESIGN_APPROVAL ( #196, ( #89 ) ) ;
#44 = EDGE_LOOP ( 'NONE', ( #136 ) ) ;
#45 = EDGE_CURVE ( 'NONE', #58, #58, #119, .T. ) ;
#46 = ORIENTED_EDGE ( 'NONE', *, *, #203, .F. ) ;
#47 = CLOSED_SHELL ( 'NONE', ( #39, #243, #206 ) ) ;
#48 = DIRECTION ( 'NONE',  ( 0.0000000000000000000, -1.000000000000000000, 0.0000000000000000000 ) ) ;
#49 = DIRECTION ( 'NONE',  ( 0.0000000000000000000, 1.000000000000000000, 0.0000000000000000000 ) ) ;
#50 = SECURITY_CLASSIFICATION_LEVEL ( 'unclassified' ) ;
#51 = FACE_OUTER_BOUND ( 'NONE', #174, .T. ) ;
#52 = CARTESIAN_POINT ( 'NONE',  ( 6.633814543801952586E-15, -2.746645503629952126E-16, 1.899999999999999689 ) ) ;
#53 = CIRCLE ( 'NONE', #79, 0.4431483474218597673 ) ;
#54 = ADVANCED_FACE ( 'NONE', ( #5, #162 ), #65, .T. ) ;
#55 = DIRECTION ( 'NONE',  ( 4.275831445896958607E-31, 1.000000000000000000, 1.224646799147353207E-16 ) ) ;
#56 = CARTESIAN_POINT ( 'NONE',  ( 0.0000000000000000000, 0.0000000000000000000, 0.0000000000000000000 ) ) ;
#57 = EDGE_CURVE ( 'NONE', #13, #13, #170, .T. ) ;
#58 = VERTEX_POINT ( 'NONE', #97 ) ;
#59 = VERTEX_POINT ( 'NONE', #17 ) ;
#60 = CC_DESIGN_APPROVAL ( #169, ( #237 ) ) ;
#61 = EDGE_LOOP ( 'NONE', ( #160 ) ) ;
#62 = APPROVAL_STATUS ( 'not_yet_approved' ) ;
#63 = ADVANCED_FACE ( 'NONE', ( #215, #116 ), #216, .F. ) ;
#64 = EDGE_LOOP ( 'NONE', ( #220 ) ) ;
#65 = CONICAL_SURFACE ( 'NONE', #102, 1.199999999999993738, 0.7853981633974453924 ) ;
#66 = APPROVAL_PERSON_ORGANIZATION ( #187, #169, #202 ) ;
#67 = PERSON_AND_ORGANIZATION_ROLE ( 'design_owner' ) ;
#68 = EDGE_LOOP ( 'NONE', ( #171 ) ) ;
#69 = DIRECTION ( 'NONE',  ( 0.0000000000000000000, 1.000000000000000000, 0.0000000000000000000 ) ) ;
#70 = DIRECTION ( 'NONE',  ( 3.491481338843133355E-15, -1.224646799147353207E-16, 1.000000000000000000 ) ) ;
#71 = APPROVAL_DATE_TIME ( #214, #196 ) ;
#72 = PLANE ( 'NONE',  #239 ) ;
#73 = CALENDAR_DATE ( 2021, 16, 11 ) ;
#74 = APPROVAL_STATUS ( 'not_yet_approved' ) ;
#75 = FACE_OUTER_BOUND ( 'NONE', #221, .T. ) ;
#76 = CC_DESIGN_DATE_AND_TIME_ASSIGNMENT ( #92, #166, ( #82 ) ) ;
#77 = AXIS2_PLACEMENT_3D ( 'NONE', #161, #126, #191 ) ;
#78 = CARTESIAN_POINT ( 'NONE',  ( -3.366520676009012221E-30, 1.175606040594767511E-31, -9.642098437004604932E-16 ) ) ;
#79 = AXIS2_PLACEMENT_3D ( 'NONE', #163, #231, #91 ) ;
#80 = VERTEX_POINT ( 'NONE', #1 ) ;
#81 = AXIS2_PLACEMENT_3D ( 'NONE', #189, #148, #6 ) ;
#82 = SECURITY_CLASSIFICATION ( '', '', #50 ) ;
#83 = CYLINDRICAL_SURFACE ( 'NONE', #199, 0.3749999999999997780 ) ;
#84 = CC_DESIGN_SECURITY_CLASSIFICATION ( #82, ( #89 ) ) ;
#85 = EDGE_CURVE ( 'NONE', #218, #218, #37, .T. ) ;
#86 = EDGE_LOOP ( 'NONE', ( #21 ) ) ;
#87 = DIRECTION ( 'NONE',  ( 3.491481338843133355E-15, -1.219242935835426903E-16, 1.000000000000000000 ) ) ;
#88 = FACE_OUTER_BOUND ( 'NONE', #3, .T. ) ;
#89 = PRODUCT_DEFINITION_FORMATION_WITH_SPECIFIED_SOURCE ( 'ANY', '', #185, .NOT_KNOWN. ) ;
#90 = FACE_OUTER_BOUND ( 'NONE', #140, .T. ) ;
#91 = DIRECTION ( 'NONE',  ( 0.0000000000000000000, -1.000000000000000000, 0.0000000000000000000 ) ) ;
#92 = DATE_AND_TIME ( #73, #95 ) ;
#93 = CARTESIAN_POINT ( 'NONE',  ( 2.221232298990049689E-14, -7.756655489645104621E-16, 6.361862153689850530 ) ) ;
#94 =( LENGTH_UNIT ( ) NAMED_UNIT ( * ) SI_UNIT ( .MILLI., .METRE. ) );
#95 = LOCAL_TIME ( 15, 59, 7.000000000000000000, #35 ) ;
#96 = CC_DESIGN_PERSON_AND_ORGANIZATION_ASSIGNMENT ( #155, #67, ( #185 ) ) ;
#97 = CARTESIAN_POINT ( 'NONE',  ( 1.316288464743861212E-13, 1.499999999999989120, 37.69999999999999574 ) ) ;
#98 = CALENDAR_DATE ( 2021, 16, 11 ) ;
#99 = CIRCLE ( 'NONE', #195, 1.499999999999991562 ) ;
#100 = VERTEX_POINT ( 'NONE', #120 ) ;
#101 = ORIENTED_EDGE ( 'NONE', *, *, #173, .F. ) ;
#102 = AXIS2_PLACEMENT_3D ( 'NONE', #213, #12, #49 ) ;
#103 = ADVANCED_FACE ( 'NONE', ( #88, #90 ), #128, .T. ) ;
#104 = LOCAL_TIME ( 15, 59, 7.000000000000000000, #8 ) ;
#105 = APPROVAL_DATE_TIME ( #20, #169 ) ;
#106 = EDGE_LOOP ( 'NONE', ( #172 ) ) ;
#107 = DIRECTION ( 'NONE',  ( 0.0000000000000000000, 0.0000000000000000000, 1.000000000000000000 ) ) ;
#108 = AXIS2_PLACEMENT_3D ( 'NONE', #144, #182, #26 ) ;
#109 = DATE_TIME_ROLE ( 'creation_date' ) ;
#110 = DIRECTION ( 'NONE',  ( 0.0000000000000000000, 1.000000000000000000, 0.0000000000000000000 ) ) ;
#111 = CARTESIAN_POINT ( 'NONE',  ( 6.633814543801952586E-15, -2.746645503629952126E-16, 1.899999999999999689 ) ) ;
#112 = COORDINATED_UNIVERSAL_TIME_OFFSET ( 1, 0, .AHEAD. ) ;
#113 = DIRECTION ( 'NONE',  ( 3.491481338843133355E-15, -1.219242935835426903E-16, 1.000000000000000000 ) ) ;
#114 = EDGE_CURVE ( 'NONE', #59, #59, #99, .T. ) ;
#115 = AXIS2_PLACEMENT_3D ( 'NONE', #78, #87, #177 ) ;
#116 = FACE_OUTER_BOUND ( 'NONE', #106, .T. ) ;
#117 = DIRECTION ( 'NONE',  ( -3.491481338843133355E-15, 1.224646799147353207E-16, -1.000000000000000000 ) ) ;
#118 = APPROVAL_DATE_TIME ( #31, #2 ) ;
#119 = CIRCLE ( 'NONE', #143, 1.499999999999993783 ) ;
#120 = CARTESIAN_POINT ( 'NONE',  ( -3.526156824433475943E-30, -0.3749999999999998890, -1.009931453794288977E-15 ) ) ;
#121 = CC_DESIGN_PERSON_AND_ORGANIZATION_ASSIGNMENT ( #229, #238, ( #82 ) ) ;
#122 = CALENDAR_DATE ( 2021, 16, 11 ) ;
#123 = PRODUCT_DEFINITION_SHAPE ( 'NONE', 'NONE',  #237 ) ;
#124 = APPLICATION_PROTOCOL_DEFINITION ( 'international standard', 'config_control_design', 1994, #132 ) ;
#125 = ORIENTED_EDGE ( 'NONE', *, *, #173, .T. ) ;
#126 = DIRECTION ( 'NONE',  ( 3.491481338843133355E-15, -1.219242935835426903E-16, 1.000000000000000000 ) ) ;
#127 = PERSON_AND_ORGANIZATION_ROLE ( 'creator' ) ;
#128 = CYLINDRICAL_SURFACE ( 'NONE', #108, 1.499999999999991562 ) ;
#129 = ADVANCED_FACE ( 'NONE', ( #192 ), #24, .F. ) ;
#130 = PLANE ( 'NONE',  #219 ) ;
#131 = CIRCLE ( 'NONE', #115, 0.3749999999999998890 ) ;
#132 = APPLICATION_CONTEXT ( 'configuration controlled 3d designs of mechanical parts and assemblies' ) ;
#133 = CC_DESIGN_PERSON_AND_ORGANIZATION_ASSIGNMENT ( #28, #193, ( #89 ) ) ;
#134 = DESIGN_CONTEXT ( 'detailed design', #201, 'design' ) ;
#135 = AXIS2_PLACEMENT_3D ( 'NONE', #205, #107, #41 ) ;
#136 = ORIENTED_EDGE ( 'NONE', *, *, #203, .T. ) ;
#137 = ORIENTED_EDGE ( 'NONE', *, *, #85, .T. ) ;
#138 = LOCAL_TIME ( 15, 59, 7.000000000000000000, #18 ) ;
#139 = FACE_OUTER_BOUND ( 'NONE', #204, .T. ) ;
#140 = EDGE_LOOP ( 'NONE', ( #156 ) ) ;
#141 = PERSON_AND_ORGANIZATION ( #224, #168 ) ;
#142 = DIRECTION ( 'NONE',  ( 0.0000000000000000000, -1.000000000000000000, 0.0000000000000000000 ) ) ;
#143 = AXIS2_PLACEMENT_3D ( 'NONE', #236, #210, #110 ) ;
#144 = CARTESIAN_POINT ( 'NONE',  ( 0.0000000000000000000, 0.0000000000000000000, 0.0000000000000000000 ) ) ;
#145 = APPROVAL_ROLE ( '' ) ;
#146 = CARTESIAN_POINT ( 'NONE',  ( 6.633814543801950220E-15, -2.316561578087310228E-16, 1.899999999999999023 ) ) ;
#147 = APPROVAL_STATUS ( 'not_yet_approved' ) ;
#148 = DIRECTION ( 'NONE',  ( 3.491481338843133355E-15, -1.219242935835426903E-16, 1.000000000000000000 ) ) ;
#149 = PLANE ( 'NONE',  #4 ) ;
#150 =( NAMED_UNIT ( * ) PLANE_ANGLE_UNIT ( ) SI_UNIT ( $, .RADIAN. ) );
#151 = VERTEX_POINT ( 'NONE', #186 ) ;
#152 = APPLICATION_PROTOCOL_DEFINITION ( 'international standard', 'config_control_design', 1994, #201 ) ;
#153 = UNCERTAINTY_MEASURE_WITH_UNIT (LENGTH_MEASURE( 1.000000000000000082E-05 ), #94, 'distance_accuracy_value', 'NONE');
#154 = ORIENTED_EDGE ( 'NONE', *, *, #45, .T. ) ;
#155 = PERSON_AND_ORGANIZATION ( #224, #168 ) ;
#156 = ORIENTED_EDGE ( 'NONE', *, *, #114, .F. ) ;
#157 = ADVANCED_FACE ( 'NONE', ( #165, #51 ), #29, .T. ) ;
#158 = EDGE_LOOP ( 'NONE', ( #101 ) ) ;
#159 = MECHANICAL_CONTEXT ( 'NONE', #132, 'mechanical' ) ;
#160 = ORIENTED_EDGE ( 'NONE', *, *, #57, .T. ) ;
#161 = CARTESIAN_POINT ( 'NONE',  ( 6.633814543801950220E-15, -2.316561578087310228E-16, 1.899999999999999023 ) ) ;
#162 = FACE_BOUND ( 'NONE', #42, .T. ) ;
#163 = CARTESIAN_POINT ( 'NONE',  ( 8.441138276027208178E-15, -2.947688162889132971E-16, 2.417638090205028067 ) ) ;
#164 = CALENDAR_DATE ( 2021, 16, 11 ) ;
#165 = FACE_BOUND ( 'NONE', #64, .T. ) ;
#166 = DATE_TIME_ROLE ( 'classification_date' ) ;
#167 = CARTESIAN_POINT ( 'NONE',  ( 3.524270874014203731E-14, -1.230693207295248293E-15, 10.09391296125883031 ) ) ;
#168 = ORGANIZATION ( 'UNSPECIFIED', 'UNSPECIFIED', '' ) ;
#169 = APPROVAL ( #62, 'UNSPECIFIED' ) ;
#170 = CIRCLE ( 'NONE', #178, 0.3749999999999996669 ) ;
#171 = ORIENTED_EDGE ( 'NONE', *, *, #45, .F. ) ;
#172 = ORIENTED_EDGE ( 'NONE', *, *, #211, .F. ) ;
#173 = EDGE_CURVE ( 'NONE', #100, #100, #131, .T. ) ;
#174 = EDGE_LOOP ( 'NONE', ( #223 ) ) ;
#175 = DIRECTION ( 'NONE',  ( -3.491481338843133355E-15, 1.224646799147353207E-16, -1.000000000000000000 ) ) ;
#176 = FACE_OUTER_BOUND ( 'NONE', #158, .T. ) ;
#177 = DIRECTION ( 'NONE',  ( -4.256963957985704510E-31, -1.000000000000000000, -1.219242935835427149E-16 ) ) ;
#178 = AXIS2_PLACEMENT_3D ( 'NONE', #146, #225, #48 ) ;
#179 = APPROVAL_PERSON_ORGANIZATION ( #33, #196, #240 ) ;
#180 = FACE_OUTER_BOUND ( 'NONE', #61, .T. ) ;
#181 = PRODUCT_RELATED_PRODUCT_CATEGORY ( 'detail', '', ( #185 ) ) ;
#182 = DIRECTION ( 'NONE',  ( -3.491481338843133355E-15, 1.224646799147353207E-16, -1.000000000000000000 ) ) ;
#183 =( GEOMETRIC_REPRESENTATION_CONTEXT ( 3 ) GLOBAL_UNCERTAINTY_ASSIGNED_CONTEXT ( ( #153 ) ) GLOBAL_UNIT_ASSIGNED_CONTEXT ( ( #94, #150, #23 ) ) REPRESENTATION_CONTEXT ( 'NONE', 'WORKASPACE' ) );
#184 = COORDINATED_UNIVERSAL_TIME_OFFSET ( 1, 0, .AHEAD. ) ;
#185 = PRODUCT ( '964122', '964122', '', ( #159 ) ) ;
#186 = CARTESIAN_POINT ( 'NONE',  ( 6.633814543801950220E-15, -0.3749999999999998890, 1.899999999999999023 ) ) ;
#187 = PERSON_AND_ORGANIZATION ( #224, #168 ) ;
#188 = MANIFOLD_SOLID_BREP ( 'Corps-Déplacer/Copier1[2]', #47 ) ;
#189 = CARTESIAN_POINT ( 'NONE',  ( 6.633814543801950220E-15, -4.336808689942017736E-16, 1.899999999999999023 ) ) ;
#190 = MANIFOLD_SOLID_BREP ( 'Corps-Déplacer/Copier1[1]', #241 ) ;
#191 = DIRECTION ( 'NONE',  ( 0.0000000000000000000, -1.000000000000000000, 0.0000000000000000000 ) ) ;
#192 = FACE_OUTER_BOUND ( 'NONE', #207, .T. ) ;
#193 = PERSON_AND_ORGANIZATION_ROLE ( 'creator' ) ;
#194 = CARTESIAN_POINT ( 'NONE',  ( -1.282754905350004587E-30, 4.499298539707956128E-32, -3.673956068672651857E-16 ) ) ;
#195 = AXIS2_PLACEMENT_3D ( 'NONE', #93, #30, #25 ) ;
#196 = APPROVAL ( #74, 'UNSPECIFIED' ) ;
#197 = CARTESIAN_POINT ( 'NONE',  ( 1.326762908760390423E-13, -4.653657836759941941E-15, 38.00000000000000000 ) ) ;
#198 = CARTESIAN_POINT ( 'NONE',  ( 6.633814543801950220E-15, -0.3749999999999998890, 1.899999999999999023 ) ) ;
#199 = AXIS2_PLACEMENT_3D ( 'NONE', #56, #15, #40 ) ;
#200 = ORIENTED_EDGE ( 'NONE', *, *, #85, .F. ) ;
#201 = APPLICATION_CONTEXT ( 'configuration controlled 3d designs of mechanical parts and assemblies' ) ;
#202 = APPROVAL_ROLE ( '' ) ;
#203 = EDGE_CURVE ( 'NONE', #151, #151, #16, .T. ) ;
#204 = EDGE_LOOP ( 'NONE', ( #46 ) ) ;
#205 = CARTESIAN_POINT ( 'NONE',  ( 0.0000000000000000000, 0.0000000000000000000, 0.0000000000000000000 ) ) ;
#206 = ADVANCED_FACE ( 'NONE', ( #176 ), #72, .F. ) ;
#207 = EDGE_LOOP ( 'NONE', ( #200 ) ) ;
#208 = DIRECTION ( 'NONE',  ( -4.275831445896958607E-31, -1.000000000000000000, -1.224646799147353207E-16 ) ) ;
#209 = SHAPE_DEFINITION_REPRESENTATION ( #123, #235 ) ;
#210 = DIRECTION ( 'NONE',  ( -3.491481338843133355E-15, 1.224646799147353207E-16, -1.000000000000000000 ) ) ;
#211 = EDGE_CURVE ( 'NONE', #80, #80, #53, .T. ) ;
#212 = CALENDAR_DATE ( 2021, 16, 11 ) ;
#213 = CARTESIAN_POINT ( 'NONE',  ( 1.326762908760390423E-13, -4.653657836759941941E-15, 38.00000000000000000 ) ) ;
#214 = DATE_AND_TIME ( #98, #217 ) ;
#215 = FACE_OUTER_BOUND ( 'NONE', #44, .T. ) ;
#216 = TOROIDAL_SURFACE ( 'NONE', #81, 2.375000000000000000, 2.000000000000000000 ) ;
#217 = LOCAL_TIME ( 15, 59, 7.000000000000000000, #184 ) ;
#218 = VERTEX_POINT ( 'NONE', #36 ) ;
#219 = AXIS2_PLACEMENT_3D ( 'NONE', #52, #34, #228 ) ;
#220 = ORIENTED_EDGE ( 'NONE', *, *, #211, .T. ) ;
#221 = EDGE_LOOP ( 'NONE', ( #125 ) ) ;
#222 = AXIS2_PLACEMENT_3D ( 'NONE', #167, #113, #142 ) ;
#223 = ORIENTED_EDGE ( 'NONE', *, *, #114, .T. ) ;
#224 = PERSON ( 'UNSPECIFIED', 'UNSPECIFIED', 'UNSPECIFIED', ('UNSPECIFIED'), ('UNSPECIFIED'), ('UNSPECIFIED') ) ;
#225 = DIRECTION ( 'NONE',  ( 3.491481338843133355E-15, -1.219242935835426903E-16, 1.000000000000000000 ) ) ;
#226 = PERSON_AND_ORGANIZATION ( #224, #168 ) ;
#227 = AXIS2_PLACEMENT_3D ( 'NONE', #197, #117, #69 ) ;
#228 = DIRECTION ( 'NONE',  ( -4.275831445896958607E-31, -1.000000000000000000, -1.224646799147353207E-16 ) ) ;
#229 = PERSON_AND_ORGANIZATION ( #224, #168 ) ;
#230 = CC_DESIGN_PERSON_AND_ORGANIZATION_ASSIGNMENT ( #141, #127, ( #237 ) ) ;
#231 = DIRECTION ( 'NONE',  ( 3.491481338843133355E-15, -1.219242935835426903E-16, 1.000000000000000000 ) ) ;
#232 = PERSON_AND_ORGANIZATION_ROLE ( 'design_supplier' ) ;
#233 = DATE_AND_TIME ( #164, #104 ) ;
#234 = CARTESIAN_POINT ( 'NONE',  ( 1.326762908760390423E-13, 8.998558695971030697E-33, 38.00000000000000000 ) ) ;
#235 = ADVANCED_BREP_SHAPE_REPRESENTATION ( '964122', ( #190, #188, #135 ), #183 ) ;
#236 = CARTESIAN_POINT ( 'NONE',  ( 1.316288464743861212E-13, -4.616918432785521081E-15, 37.69999999999999574 ) ) ;
#237 = PRODUCT_DEFINITION ( 'UNKNOWN', '', #89, #134 ) ;
#238 = PERSON_AND_ORGANIZATION_ROLE ( 'classification_officer' ) ;
#239 = AXIS2_PLACEMENT_3D ( 'NONE', #194, #11, #9 ) ;
#240 = APPROVAL_ROLE ( '' ) ;
#241 = CLOSED_SHELL ( 'NONE', ( #103, #54, #129, #157, #63, #7 ) ) ;
#242 = LOCAL_TIME ( 15, 59, 7.000000000000000000, #112 ) ;
#243 = ADVANCED_FACE ( 'NONE', ( #75, #38 ), #83, .T. ) ;
ENDSEC;
END-ISO-10303-21;
