ISO-10303-21;
HEADER;
FILE_DESCRIPTION (( 'STEP AP203' ),
    '1' );
FILE_NAME ('964121.step',
    '2021-11-16T14:59:06',
    ( '' ),
    ( '' ),
    'SwSTEP 2.0',
    'SolidWorks 2019',
    '' );
FILE_SCHEMA (( 'CONFIG_CONTROL_DESIGN' ));
ENDSEC;

DATA;
#1 = FACE_OUTER_BOUND ( 'NONE', #147, .T. ) ;
#2 = EDGE_LOOP ( 'NONE', ( #34 ) ) ;
#3 = EDGE_LOOP ( 'NONE', ( #104 ) ) ;
#4 = PRODUCT_DEFINITION_SHAPE ( 'NONE', 'NONE',  #243 ) ;
#5 = AXIS2_PLACEMENT_3D ( 'NONE', #241, #52, #35 ) ;
#6 = DIRECTION ( 'NONE',  ( 3.491481338843133355E-15, -1.219242935835426903E-16, 1.000000000000000000 ) ) ;
#7 = CARTESIAN_POINT ( 'NONE',  ( 7.917416075200738175E-15, -0.4181483474218606333, 2.267638090205028156 ) ) ;
#8 = PRODUCT ( '964121', '964121', '', ( #46 ) ) ;
#9 = PLANE ( 'NONE',  #227 ) ;
#10 = DIRECTION ( 'NONE',  ( -4.256963957985700131E-31, -1.000000000000000000, -1.219242935835424684E-16 ) ) ;
#11 = DIRECTION ( 'NONE',  ( 3.491481338843133355E-15, -1.224646799147353207E-16, 1.000000000000000000 ) ) ;
#12 = APPROVAL_DATE_TIME ( #141, #185 ) ;
#13 = LOCAL_TIME ( 15, 59, 6.000000000000000000, #122 ) ;
#14 = PERSON_AND_ORGANIZATION ( #117, #213 ) ;
#15 = EDGE_LOOP ( 'NONE', ( #162 ) ) ;
#16 = ORIENTED_EDGE ( 'NONE', *, *, #84, .T. ) ;
#17 = APPROVAL_PERSON_ORGANIZATION ( #47, #232, #196 ) ;
#18 = AXIS2_PLACEMENT_3D ( 'NONE', #77, #188, #129 ) ;
#19 = FACE_OUTER_BOUND ( 'NONE', #202, .T. ) ;
#20 = CYLINDRICAL_SURFACE ( 'NONE', #5, 1.499999999999991562 ) ;
#21 = DIRECTION ( 'NONE',  ( 3.491481338843133355E-15, -1.219242935835426903E-16, 1.000000000000000000 ) ) ;
#22 = AXIS2_PLACEMENT_3D ( 'NONE', #123, #178, #91 ) ;
#23 = DIRECTION ( 'NONE',  ( 4.275831445896958607E-31, 1.000000000000000000, 1.224646799147353207E-16 ) ) ;
#24 = FACE_OUTER_BOUND ( 'NONE', #3, .T. ) ;
#25 = LOCAL_TIME ( 15, 59, 6.000000000000000000, #103 ) ;
#26 =( GEOMETRIC_REPRESENTATION_CONTEXT ( 3 ) GLOBAL_UNCERTAINTY_ASSIGNED_CONTEXT ( ( #109 ) ) GLOBAL_UNIT_ASSIGNED_CONTEXT ( ( #168, #215, #32 ) ) REPRESENTATION_CONTEXT ( 'NONE', 'WORKASPACE' ) );
#27 = CARTESIAN_POINT ( 'NONE',  ( 2.201436043283005877E-14, -7.687525963852471888E-16, 6.305163423879072582 ) ) ;
#28 = COORDINATED_UNIVERSAL_TIME_OFFSET ( 1, 0, .AHEAD. ) ;
#29 = DATE_AND_TIME ( #62, #80 ) ;
#30 = SHAPE_DEFINITION_REPRESENTATION ( #4, #229 ) ;
#31 = CC_DESIGN_PERSON_AND_ORGANIZATION_ASSIGNMENT ( #197, #236, ( #243 ) ) ;
#32 =( NAMED_UNIT ( * ) SI_UNIT ( $, .STERADIAN. ) SOLID_ANGLE_UNIT ( ) );
#33 = FACE_OUTER_BOUND ( 'NONE', #15, .T. ) ;
#34 = ORIENTED_EDGE ( 'NONE', *, *, #97, .F. ) ;
#35 = DIRECTION ( 'NONE',  ( 4.275831445896958607E-31, 1.000000000000000000, 1.224646799147353207E-16 ) ) ;
#36 = CARTESIAN_POINT ( 'NONE',  ( 0.0000000000000000000, 0.0000000000000000000, 0.0000000000000000000 ) ) ;
#37 = CONICAL_SURFACE ( 'NONE', #190, 2.499999999999992895, 0.2617993877991429130 ) ;
#38 = FACE_OUTER_BOUND ( 'NONE', #2, .T. ) ;
#39 = VERTEX_POINT ( 'NONE', #7 ) ;
#40 = CIRCLE ( 'NONE', #90, 0.3500000000000000333 ) ;
#41 = EDGE_CURVE ( 'NONE', #205, #205, #199, .T. ) ;
#42 = CARTESIAN_POINT ( 'NONE',  ( 1.316288464743861212E-13, 1.499999999999989120, 37.69999999999999574 ) ) ;
#43 = PRODUCT_RELATED_PRODUCT_CATEGORY ( 'detail', '', ( #8 ) ) ;
#44 = FACE_OUTER_BOUND ( 'NONE', #165, .T. ) ;
#45 = PERSON_AND_ORGANIZATION_ROLE ( 'design_owner' ) ;
#46 = MECHANICAL_CONTEXT ( 'NONE', #128, 'mechanical' ) ;
#47 = PERSON_AND_ORGANIZATION ( #117, #213 ) ;
#48 = AXIS2_PLACEMENT_3D ( 'NONE', #171, #223, #23 ) ;
#49 = APPROVAL_DATE_TIME ( #29, #193 ) ;
#50 = ORIENTED_EDGE ( 'NONE', *, *, #200, .F. ) ;
#51 = CC_DESIGN_APPROVAL ( #232, ( #136 ) ) ;
#52 = DIRECTION ( 'NONE',  ( -3.491481338843133355E-15, 1.224646799147353207E-16, -1.000000000000000000 ) ) ;
#53 = DIRECTION ( 'NONE',  ( 3.491481338843133355E-15, -1.219242935835426903E-16, 1.000000000000000000 ) ) ;
#54 = LOCAL_TIME ( 15, 59, 6.000000000000000000, #102 ) ;
#55 = FACE_BOUND ( 'NONE', #164, .T. ) ;
#56 = CARTESIAN_POINT ( 'NONE',  ( 6.110092342975480216E-15, -2.133675137711996094E-16, 1.749999999999999112 ) ) ;
#57 = VERTEX_POINT ( 'NONE', #170 ) ;
#58 = DIRECTION ( 'NONE',  ( 3.491481338843133355E-15, -1.224646799147353207E-16, 1.000000000000000000 ) ) ;
#59 = PLANE ( 'NONE',  #156 ) ;
#60 = DIRECTION ( 'NONE',  ( 1.000000000000000000, 0.0000000000000000000, 0.0000000000000000000 ) ) ;
#61 = PERSON_AND_ORGANIZATION_ROLE ( 'classification_officer' ) ;
#62 = CALENDAR_DATE ( 2021, 16, 11 ) ;
#63 = APPLICATION_CONTEXT ( 'configuration controlled 3d designs of mechanical parts and assemblies' ) ;
#64 = CC_DESIGN_APPROVAL ( #185, ( #111 ) ) ;
#65 = DATE_TIME_ROLE ( 'creation_date' ) ;
#66 = CIRCLE ( 'NONE', #195, 0.3500000000000002554 ) ;
#67 = FACE_OUTER_BOUND ( 'NONE', #105, .T. ) ;
#68 = EDGE_LOOP ( 'NONE', ( #124 ) ) ;
#69 = ADVANCED_FACE ( 'NONE', ( #143, #19 ), #20, .T. ) ;
#70 = ORIENTED_EDGE ( 'NONE', *, *, #41, .F. ) ;
#71 = CIRCLE ( 'NONE', #234, 1.499999999999991562 ) ;
#72 = FACE_OUTER_BOUND ( 'NONE', #108, .T. ) ;
#73 = ADVANCED_FACE ( 'NONE', ( #67, #106 ), #113, .T. ) ;
#74 = DIRECTION ( 'NONE',  ( -3.491481338843133355E-15, 1.219242935835426903E-16, -1.000000000000000000 ) ) ;
#75 = DIRECTION ( 'NONE',  ( -3.491481338843133355E-15, 1.224646799147353207E-16, -1.000000000000000000 ) ) ;
#76 = CIRCLE ( 'NONE', #107, 1.199999999999993738 ) ;
#77 = CARTESIAN_POINT ( 'NONE',  ( 6.110092342975480216E-15, 0.0000000000000000000, 1.749999999999999112 ) ) ;
#78 = FACE_OUTER_BOUND ( 'NONE', #220, .T. ) ;
#79 = PERSON_AND_ORGANIZATION ( #117, #213 ) ;
#80 = LOCAL_TIME ( 15, 59, 6.000000000000000000, #28 ) ;
#81 = TOROIDAL_SURFACE ( 'NONE', #18, 2.350000000000000089, 2.000000000000000000 ) ;
#82 = AXIS2_PLACEMENT_3D ( 'NONE', #186, #167, #131 ) ;
#83 = APPLICATION_PROTOCOL_DEFINITION ( 'international standard', 'config_control_design', 1994, #63 ) ;
#84 = EDGE_CURVE ( 'NONE', #39, #39, #119, .T. ) ;
#85 = APPROVAL_STATUS ( 'not_yet_approved' ) ;
#86 = PERSON_AND_ORGANIZATION ( #117, #213 ) ;
#87 = AXIS2_PLACEMENT_3D ( 'NONE', #233, #209, #60 ) ;
#88 = ADVANCED_FACE ( 'NONE', ( #33, #1 ), #146, .T. ) ;
#89 = EDGE_LOOP ( 'NONE', ( #145 ) ) ;
#90 = AXIS2_PLACEMENT_3D ( 'NONE', #153, #21, #10 ) ;
#91 = DIRECTION ( 'NONE',  ( 0.0000000000000000000, 1.000000000000000000, 0.0000000000000000000 ) ) ;
#92 = DIRECTION ( 'NONE',  ( 3.491481338843133355E-15, -1.219242935835426903E-16, 1.000000000000000000 ) ) ;
#93 = DIRECTION ( 'NONE',  ( 3.491481338843133355E-15, -1.219242935835426903E-16, 1.000000000000000000 ) ) ;
#94 = CARTESIAN_POINT ( 'NONE',  ( 6.110092342975482583E-15, -2.529805069132850746E-16, 1.749999999999999778 ) ) ;
#95 = CARTESIAN_POINT ( 'NONE',  ( 3.504474618307159288E-14, -1.223780254715984921E-15, 10.03721423144805058 ) ) ;
#96 = VERTEX_POINT ( 'NONE', #114 ) ;
#97 = EDGE_CURVE ( 'NONE', #57, #57, #40, .T. ) ;
#98 = DIRECTION ( 'NONE',  ( 0.0000000000000000000, -1.000000000000000000, 0.0000000000000000000 ) ) ;
#99 = APPROVAL_ROLE ( '' ) ;
#100 = CC_DESIGN_PERSON_AND_ORGANIZATION_ASSIGNMENT ( #14, #157, ( #111 ) ) ;
#101 = CALENDAR_DATE ( 2021, 16, 11 ) ;
#102 = COORDINATED_UNIVERSAL_TIME_OFFSET ( 1, 0, .AHEAD. ) ;
#103 = COORDINATED_UNIVERSAL_TIME_OFFSET ( 1, 0, .AHEAD. ) ;
#104 = ORIENTED_EDGE ( 'NONE', *, *, #137, .T. ) ;
#105 = EDGE_LOOP ( 'NONE', ( #50 ) ) ;
#106 = FACE_BOUND ( 'NONE', #68, .T. ) ;
#107 = AXIS2_PLACEMENT_3D ( 'NONE', #231, #75, #150 ) ;
#108 = EDGE_LOOP ( 'NONE', ( #177 ) ) ;
#109 = UNCERTAINTY_MEASURE_WITH_UNIT (LENGTH_MEASURE( 1.000000000000000082E-05 ), #168, 'distance_accuracy_value', 'NONE');
#110 = DIRECTION ( 'NONE',  ( -4.275831445896958607E-31, -1.000000000000000000, -1.224646799147353207E-16 ) ) ;
#111 = PRODUCT_DEFINITION_FORMATION_WITH_SPECIFIED_SOURCE ( 'ANY', '', #8, .NOT_KNOWN. ) ;
#112 = CARTESIAN_POINT ( 'NONE',  ( -1.282754905350004587E-30, 4.499298539707956128E-32, -3.673956068672651857E-16 ) ) ;
#113 = CONICAL_SURFACE ( 'NONE', #22, 1.199999999999993738, 0.7853981633974453924 ) ;
#114 = CARTESIAN_POINT ( 'NONE',  ( 1.326762908760390423E-13, 1.199999999999989297, 38.00000000000000000 ) ) ;
#115 = DIRECTION ( 'NONE',  ( -4.275831445896958607E-31, -1.000000000000000000, -1.224646799147353207E-16 ) ) ;
#116 = CC_DESIGN_PERSON_AND_ORGANIZATION_ASSIGNMENT ( #237, #45, ( #8 ) ) ;
#117 = PERSON ( 'UNSPECIFIED', 'UNSPECIFIED', 'UNSPECIFIED', ('UNSPECIFIED'), ('UNSPECIFIED'), ('UNSPECIFIED') ) ;
#118 = DIRECTION ( 'NONE',  ( -4.256963957985708889E-31, -1.000000000000000000, -1.219242935835426903E-16 ) ) ;
#119 = CIRCLE ( 'NONE', #161, 0.4181483474218603558 ) ;
#120 = CALENDAR_DATE ( 2021, 16, 11 ) ;
#121 = APPROVAL_STATUS ( 'not_yet_approved' ) ;
#122 = COORDINATED_UNIVERSAL_TIME_OFFSET ( 1, 0, .AHEAD. ) ;
#123 = CARTESIAN_POINT ( 'NONE',  ( 1.326762908760390423E-13, -4.653657836759941941E-15, 38.00000000000000000 ) ) ;
#124 = ORIENTED_EDGE ( 'NONE', *, *, #225, .T. ) ;
#125 = ORIENTED_EDGE ( 'NONE', *, *, #84, .F. ) ;
#126 = DESIGN_CONTEXT ( 'detailed design', #63, 'design' ) ;
#127 = EDGE_LOOP ( 'NONE', ( #70 ) ) ;
#128 = APPLICATION_CONTEXT ( 'configuration controlled 3d designs of mechanical parts and assemblies' ) ;
#129 = DIRECTION ( 'NONE',  ( -4.318010611786305654E-31, -1.000000000000000000, -1.219242935835426903E-16 ) ) ;
#130 = ADVANCED_FACE ( 'NONE', ( #38 ), #59, .F. ) ;
#131 = DIRECTION ( 'NONE',  ( 0.0000000000000000000, 1.000000000000000000, 0.0000000000000000000 ) ) ;
#132 = CARTESIAN_POINT ( 'NONE',  ( 6.110092342975480216E-15, -0.3500000000000004774, 1.749999999999999112 ) ) ;
#133 = CIRCLE ( 'NONE', #82, 1.499999999999993783 ) ;
#134 = DIRECTION ( 'NONE',  ( 3.491481338843133355E-15, -1.219242935835426903E-16, 1.000000000000000000 ) ) ;
#135 = CARTESIAN_POINT ( 'NONE',  ( 6.110092342975482583E-15, -2.529805069132850746E-16, 1.749999999999999778 ) ) ;
#136 = SECURITY_CLASSIFICATION ( '', '', #139 ) ;
#137 = EDGE_CURVE ( 'NONE', #151, #151, #71, .T. ) ;
#138 = COORDINATED_UNIVERSAL_TIME_OFFSET ( 1, 0, .AHEAD. ) ;
#139 = SECURITY_CLASSIFICATION_LEVEL ( 'unclassified' ) ;
#140 = ADVANCED_FACE ( 'NONE', ( #72 ), #9, .T. ) ;
#141 = DATE_AND_TIME ( #101, #13 ) ;
#142 = MANIFOLD_SOLID_BREP ( 'Corps-Déplacer/Copier1[1]', #203 ) ;
#143 = FACE_OUTER_BOUND ( 'NONE', #89, .T. ) ;
#144 = CC_DESIGN_PERSON_AND_ORGANIZATION_ASSIGNMENT ( #79, #172, ( #111 ) ) ;
#145 = ORIENTED_EDGE ( 'NONE', *, *, #200, .T. ) ;
#146 = CYLINDRICAL_SURFACE ( 'NONE', #180, 0.3500000000000001443 ) ;
#147 = EDGE_LOOP ( 'NONE', ( #240 ) ) ;
#148 = EDGE_CURVE ( 'NONE', #226, #226, #66, .T. ) ;
#149 = MANIFOLD_SOLID_BREP ( 'Corps-Déplacer/Copier1[2]', #184 ) ;
#150 = DIRECTION ( 'NONE',  ( 0.0000000000000000000, 1.000000000000000000, 0.0000000000000000000 ) ) ;
#151 = VERTEX_POINT ( 'NONE', #187 ) ;
#152 = FACE_OUTER_BOUND ( 'NONE', #181, .T. ) ;
#153 = CARTESIAN_POINT ( 'NONE',  ( -3.355878266114047833E-30, 1.171889657253305952E-31, -9.611617363608717435E-16 ) ) ;
#154 = DATE_AND_TIME ( #192, #25 ) ;
#155 = APPROVAL_PERSON_ORGANIZATION ( #191, #193, #158 ) ;
#156 = AXIS2_PLACEMENT_3D ( 'NONE', #112, #11, #115 ) ;
#157 = PERSON_AND_ORGANIZATION_ROLE ( 'design_supplier' ) ;
#158 = APPROVAL_ROLE ( '' ) ;
#159 = APPROVAL_STATUS ( 'not_yet_approved' ) ;
#160 = LOCAL_TIME ( 15, 59, 6.000000000000000000, #138 ) ;
#161 = AXIS2_PLACEMENT_3D ( 'NONE', #198, #53, #163 ) ;
#162 = ORIENTED_EDGE ( 'NONE', *, *, #97, .T. ) ;
#163 = DIRECTION ( 'NONE',  ( 0.0000000000000000000, -1.000000000000000000, 0.0000000000000000000 ) ) ;
#164 = EDGE_LOOP ( 'NONE', ( #16 ) ) ;
#165 = EDGE_LOOP ( 'NONE', ( #125 ) ) ;
#166 = PLANE ( 'NONE',  #242 ) ;
#167 = DIRECTION ( 'NONE',  ( -3.491481338843133355E-15, 1.224646799147353207E-16, -1.000000000000000000 ) ) ;
#168 =( LENGTH_UNIT ( ) NAMED_UNIT ( * ) SI_UNIT ( .MILLI., .METRE. ) );
#169 = CC_DESIGN_APPROVAL ( #193, ( #243 ) ) ;
#170 = CARTESIAN_POINT ( 'NONE',  ( -3.504872004643547167E-30, -0.3500000000000000333, -1.003835239115111675E-15 ) ) ;
#171 = CARTESIAN_POINT ( 'NONE',  ( 1.326762908760390423E-13, 8.998558695971030697E-33, 38.00000000000000000 ) ) ;
#172 = PERSON_AND_ORGANIZATION_ROLE ( 'creator' ) ;
#173 = APPROVAL_DATE_TIME ( #194, #232 ) ;
#174 = PERSON_AND_ORGANIZATION ( #117, #213 ) ;
#175 = ORIENTED_EDGE ( 'NONE', *, *, #41, .T. ) ;
#176 = ADVANCED_FACE ( 'NONE', ( #207 ), #166, .F. ) ;
#177 = ORIENTED_EDGE ( 'NONE', *, *, #148, .T. ) ;
#178 = DIRECTION ( 'NONE',  ( -3.491481338843133355E-15, 1.224646799147353207E-16, -1.000000000000000000 ) ) ;
#179 = APPROVAL_PERSON_ORGANIZATION ( #174, #185, #99 ) ;
#180 = AXIS2_PLACEMENT_3D ( 'NONE', #36, #92, #118 ) ;
#181 = EDGE_LOOP ( 'NONE', ( #182 ) ) ;
#182 = ORIENTED_EDGE ( 'NONE', *, *, #225, .F. ) ;
#183 = DIRECTION ( 'NONE',  ( 0.0000000000000000000, -1.000000000000000000, 0.0000000000000000000 ) ) ;
#184 = CLOSED_SHELL ( 'NONE', ( #140, #88, #130 ) ) ;
#185 = APPROVAL ( #159, 'UNSPECIFIED' ) ;
#186 = CARTESIAN_POINT ( 'NONE',  ( 1.316288464743861212E-13, -4.616918432785521081E-15, 37.69999999999999574 ) ) ;
#187 = CARTESIAN_POINT ( 'NONE',  ( 2.201436043283005877E-14, -1.499999999999992450, 6.305163423879072582 ) ) ;
#188 = DIRECTION ( 'NONE',  ( 3.491481338843133355E-15, -1.219242935835426903E-16, 1.000000000000000000 ) ) ;
#189 = DIRECTION ( 'NONE',  ( -4.275831445896958607E-31, -1.000000000000000000, -1.224646799147353207E-16 ) ) ;
#190 = AXIS2_PLACEMENT_3D ( 'NONE', #95, #6, #224 ) ;
#191 = PERSON_AND_ORGANIZATION ( #117, #213 ) ;
#192 = CALENDAR_DATE ( 2021, 16, 11 ) ;
#193 = APPROVAL ( #85, 'UNSPECIFIED' ) ;
#194 = DATE_AND_TIME ( #120, #54 ) ;
#195 = AXIS2_PLACEMENT_3D ( 'NONE', #56, #134, #98 ) ;
#196 = APPROVAL_ROLE ( '' ) ;
#197 = PERSON_AND_ORGANIZATION ( #117, #213 ) ;
#198 = CARTESIAN_POINT ( 'NONE',  ( 7.917416075200738175E-15, -2.764801722513818837E-16, 2.267638090205028156 ) ) ;
#199 = CIRCLE ( 'NONE', #214, 0.3500000000000002554 ) ;
#200 = EDGE_CURVE ( 'NONE', #206, #206, #133, .T. ) ;
#201 = ADVANCED_FACE ( 'NONE', ( #78, #44 ), #81, .F. ) ;
#202 = EDGE_LOOP ( 'NONE', ( #217 ) ) ;
#203 = CLOSED_SHELL ( 'NONE', ( #69, #73, #216, #230, #201, #176 ) ) ;
#204 = CARTESIAN_POINT ( 'NONE',  ( 6.110092342975480216E-15, -0.3500000000000004774, 1.749999999999999112 ) ) ;
#205 = VERTEX_POINT ( 'NONE', #204 ) ;
#206 = VERTEX_POINT ( 'NONE', #42 ) ;
#207 = FACE_OUTER_BOUND ( 'NONE', #127, .T. ) ;
#208 = DIRECTION ( 'NONE',  ( 3.491481338843133355E-15, -1.224646799147353207E-16, 1.000000000000000000 ) ) ;
#209 = DIRECTION ( 'NONE',  ( 0.0000000000000000000, 0.0000000000000000000, 1.000000000000000000 ) ) ;
#210 = APPLICATION_PROTOCOL_DEFINITION ( 'international standard', 'config_control_design', 1994, #128 ) ;
#211 = DATE_AND_TIME ( #238, #160 ) ;
#212 = DATE_TIME_ROLE ( 'classification_date' ) ;
#213 = ORGANIZATION ( 'UNSPECIFIED', 'UNSPECIFIED', '' ) ;
#214 = AXIS2_PLACEMENT_3D ( 'NONE', #222, #93, #219 ) ;
#215 =( NAMED_UNIT ( * ) PLANE_ANGLE_UNIT ( ) SI_UNIT ( $, .RADIAN. ) );
#216 = ADVANCED_FACE ( 'NONE', ( #152 ), #228, .F. ) ;
#217 = ORIENTED_EDGE ( 'NONE', *, *, #137, .F. ) ;
#218 = CC_DESIGN_DATE_AND_TIME_ASSIGNMENT ( #211, #212, ( #136 ) ) ;
#219 = DIRECTION ( 'NONE',  ( 0.0000000000000000000, -1.000000000000000000, 0.0000000000000000000 ) ) ;
#220 = EDGE_LOOP ( 'NONE', ( #175 ) ) ;
#221 = CC_DESIGN_PERSON_AND_ORGANIZATION_ASSIGNMENT ( #86, #61, ( #136 ) ) ;
#222 = CARTESIAN_POINT ( 'NONE',  ( 6.110092342975480216E-15, -2.133675137711996094E-16, 1.749999999999999112 ) ) ;
#223 = DIRECTION ( 'NONE',  ( -3.491481338843133355E-15, 1.224646799147353207E-16, -1.000000000000000000 ) ) ;
#224 = DIRECTION ( 'NONE',  ( 0.0000000000000000000, -1.000000000000000000, 0.0000000000000000000 ) ) ;
#225 = EDGE_CURVE ( 'NONE', #96, #96, #76, .T. ) ;
#226 = VERTEX_POINT ( 'NONE', #132 ) ;
#227 = AXIS2_PLACEMENT_3D ( 'NONE', #94, #58, #189 ) ;
#228 = PLANE ( 'NONE',  #48 ) ;
#229 = ADVANCED_BREP_SHAPE_REPRESENTATION ( '964121', ( #142, #149, #87 ), #26 ) ;
#230 = ADVANCED_FACE ( 'NONE', ( #55, #24 ), #37, .T. ) ;
#231 = CARTESIAN_POINT ( 'NONE',  ( 1.326762908760390423E-13, -4.653657836759941941E-15, 38.00000000000000000 ) ) ;
#232 = APPROVAL ( #121, 'UNSPECIFIED' ) ;
#233 = CARTESIAN_POINT ( 'NONE',  ( 0.0000000000000000000, 0.0000000000000000000, 0.0000000000000000000 ) ) ;
#234 = AXIS2_PLACEMENT_3D ( 'NONE', #27, #74, #183 ) ;
#235 = CC_DESIGN_DATE_AND_TIME_ASSIGNMENT ( #154, #65, ( #243 ) ) ;
#236 = PERSON_AND_ORGANIZATION_ROLE ( 'creator' ) ;
#237 = PERSON_AND_ORGANIZATION ( #117, #213 ) ;
#238 = CALENDAR_DATE ( 2021, 16, 11 ) ;
#239 = CC_DESIGN_SECURITY_CLASSIFICATION ( #136, ( #111 ) ) ;
#240 = ORIENTED_EDGE ( 'NONE', *, *, #148, .F. ) ;
#241 = CARTESIAN_POINT ( 'NONE',  ( 0.0000000000000000000, 0.0000000000000000000, 0.0000000000000000000 ) ) ;
#242 = AXIS2_PLACEMENT_3D ( 'NONE', #135, #208, #110 ) ;
#243 = PRODUCT_DEFINITION ( 'UNKNOWN', '', #111, #126 ) ;
ENDSEC;
END-ISO-10303-21;
