ISO-10303-21;
HEADER;
FILE_DESCRIPTION (( 'STEP AP203' ),
    '1' );
FILE_NAME ('964119.step',
    '2021-11-16T14:59:05',
    ( '' ),
    ( '' ),
    'SwSTEP 2.0',
    'SolidWorks 2019',
    '' );
FILE_SCHEMA (( 'CONFIG_CONTROL_DESIGN' ));
ENDSEC;

DATA;
#1 = AXIS2_PLACEMENT_3D ( 'NONE', #146, #114, #213 ) ;
#2 = DESIGN_CONTEXT ( 'detailed design', #193, 'design' ) ;
#3 = CONICAL_SURFACE ( 'NONE', #126, 2.499999999999992895, 0.2617993877991428575 ) ;
#4 = CARTESIAN_POINT ( 'NONE',  ( 0.0000000000000000000, 0.0000000000000000000, 0.0000000000000000000 ) ) ;
#5 = EDGE_LOOP ( 'NONE', ( #57 ) ) ;
#6 = CARTESIAN_POINT ( 'NONE',  ( 1.316288464743861212E-13, 1.499999999999989120, 37.69999999999999574 ) ) ;
#7 = EDGE_LOOP ( 'NONE', ( #35 ) ) ;
#8 = LOCAL_TIME ( 15, 59, 5.000000000000000000, #118 ) ;
#9 = EDGE_CURVE ( 'NONE', #235, #235, #140, .T. ) ;
#10 = PLANE ( 'NONE',  #227 ) ;
#11 = CARTESIAN_POINT ( 'NONE',  ( 1.326762908760390423E-13, 8.998558695971030697E-33, 38.00000000000000000 ) ) ;
#12 = CARTESIAN_POINT ( 'NONE',  ( 5.237222008264700033E-15, -2.168404344971014538E-16, 1.500000000000000000 ) ) ;
#13 = CARTESIAN_POINT ( 'NONE',  ( 5.237222008264697666E-15, -0.3000000000000002665, 1.499999999999999334 ) ) ;
#14 = DIRECTION ( 'NONE',  ( 0.0000000000000000000, 1.000000000000000000, 0.0000000000000000000 ) ) ;
#15 = DATE_TIME_ROLE ( 'creation_date' ) ;
#16 = AXIS2_PLACEMENT_3D ( 'NONE', #237, #65, #130 ) ;
#17 = DATE_TIME_ROLE ( 'classification_date' ) ;
#18 = ADVANCED_FACE ( 'NONE', ( #22, #141 ), #37, .T. ) ;
#19 = AXIS2_PLACEMENT_3D ( 'NONE', #31, #155, #168 ) ;
#20 = PERSON_AND_ORGANIZATION ( #111, #156 ) ;
#21 = EDGE_LOOP ( 'NONE', ( #23 ) ) ;
#22 = FACE_OUTER_BOUND ( 'NONE', #34, .T. ) ;
#23 = ORIENTED_EDGE ( 'NONE', *, *, #55, .T. ) ;
#24 = EDGE_CURVE ( 'NONE', #43, #43, #52, .T. ) ;
#25 = CARTESIAN_POINT ( 'NONE',  ( 3.482339513587289539E-14, -1.216050564236636466E-15, 9.973816771826502503 ) ) ;
#26 = CC_DESIGN_APPROVAL ( #84, ( #167 ) ) ;
#27 = DIRECTION ( 'NONE',  ( -3.491481338843133355E-15, 1.224646799147353207E-16, -1.000000000000000000 ) ) ;
#28 = DIRECTION ( 'NONE',  ( 3.491481338843133355E-15, -1.224646799147353207E-16, 1.000000000000000000 ) ) ;
#29 = FACE_OUTER_BOUND ( 'NONE', #138, .T. ) ;
#30 = DATE_AND_TIME ( #195, #48 ) ;
#31 = CARTESIAN_POINT ( 'NONE',  ( 0.0000000000000000000, 0.0000000000000000000, 0.0000000000000000000 ) ) ;
#32 = EDGE_CURVE ( 'NONE', #166, #166, #232, .T. ) ;
#33 = AXIS2_PLACEMENT_3D ( 'NONE', #201, #58, #204 ) ;
#34 = EDGE_LOOP ( 'NONE', ( #224 ) ) ;
#35 = ORIENTED_EDGE ( 'NONE', *, *, #24, .F. ) ;
#36 = CIRCLE ( 'NONE', #119, 0.3681483474218602003 ) ;
#37 = CYLINDRICAL_SURFACE ( 'NONE', #178, 1.499999999999991562 ) ;
#38 = LOCAL_TIME ( 15, 59, 5.000000000000000000, #154 ) ;
#39 = EDGE_LOOP ( 'NONE', ( #89 ) ) ;
#40 = EDGE_LOOP ( 'NONE', ( #72 ) ) ;
#41 = CIRCLE ( 'NONE', #1, 0.3000000000000000999 ) ;
#42 = CARTESIAN_POINT ( 'NONE',  ( 1.326762908760390423E-13, -4.653657836759941941E-15, 38.00000000000000000 ) ) ;
#43 = VERTEX_POINT ( 'NONE', #92 ) ;
#44 = PLANE ( 'NONE',  #200 ) ;
#45 = VERTEX_POINT ( 'NONE', #6 ) ;
#46 = FACE_OUTER_BOUND ( 'NONE', #179, .T. ) ;
#47 = PERSON_AND_ORGANIZATION ( #111, #156 ) ;
#48 = LOCAL_TIME ( 15, 59, 5.000000000000000000, #217 ) ;
#49 = ADVANCED_FACE ( 'NONE', ( #157 ), #10, .F. ) ;
#50 = ADVANCED_FACE ( 'NONE', ( #231, #62 ), #211, .T. ) ;
#51 = PERSON_AND_ORGANIZATION ( #111, #156 ) ;
#52 = CIRCLE ( 'NONE', #33, 0.2999999999999999334 ) ;
#53 = PERSON_AND_ORGANIZATION_ROLE ( 'classification_officer' ) ;
#54 = AXIS2_PLACEMENT_3D ( 'NONE', #11, #233, #188 ) ;
#55 = EDGE_CURVE ( 'NONE', #95, #95, #36, .T. ) ;
#56 = DIRECTION ( 'NONE',  ( 3.491481338843133355E-15, -1.219242935835426903E-16, 1.000000000000000000 ) ) ;
#57 = ORIENTED_EDGE ( 'NONE', *, *, #64, .T. ) ;
#58 = DIRECTION ( 'NONE',  ( 3.491481338843133355E-15, -1.219242935835426903E-16, 1.000000000000000000 ) ) ;
#59 = APPLICATION_PROTOCOL_DEFINITION ( 'international standard', 'config_control_design', 1994, #242 ) ;
#60 = MANIFOLD_SOLID_BREP ( 'Corps-Déplacer/Copier1[2]', #189 ) ;
#61 = CLOSED_SHELL ( 'NONE', ( #18, #87, #171, #222, #208, #123 ) ) ;
#62 = FACE_OUTER_BOUND ( 'NONE', #40, .T. ) ;
#63 = MECHANICAL_CONTEXT ( 'NONE', #242, 'mechanical' ) ;
#64 = EDGE_CURVE ( 'NONE', #229, #229, #173, .T. ) ;
#65 = DIRECTION ( 'NONE',  ( 3.491481338843133355E-15, -1.219242935835426903E-16, 1.000000000000000000 ) ) ;
#66 = DATE_AND_TIME ( #239, #86 ) ;
#67 = PERSON_AND_ORGANIZATION ( #111, #156 ) ;
#68 = PERSON_AND_ORGANIZATION ( #111, #156 ) ;
#69 = APPROVAL_PERSON_ORGANIZATION ( #221, #84, #81 ) ;
#70 = CC_DESIGN_DATE_AND_TIME_ASSIGNMENT ( #117, #15, ( #198 ) ) ;
#71 = UNCERTAINTY_MEASURE_WITH_UNIT (LENGTH_MEASURE( 1.000000000000000082E-05 ), #182, 'distance_accuracy_value', 'NONE');
#72 = ORIENTED_EDGE ( 'NONE', *, *, #32, .F. ) ;
#73 = DIRECTION ( 'NONE',  ( 0.0000000000000000000, -1.000000000000000000, 0.0000000000000000000 ) ) ;
#74 = DIRECTION ( 'NONE',  ( 0.0000000000000000000, 1.000000000000000000, 0.0000000000000000000 ) ) ;
#75 = FACE_OUTER_BOUND ( 'NONE', #102, .T. ) ;
#76 = PLANE ( 'NONE',  #54 ) ;
#77 = PERSON_AND_ORGANIZATION ( #111, #156 ) ;
#78 = FACE_BOUND ( 'NONE', #21, .T. ) ;
#79 = APPROVAL_STATUS ( 'not_yet_approved' ) ;
#80 = CIRCLE ( 'NONE', #110, 1.499999999999993783 ) ;
#81 = APPROVAL_ROLE ( '' ) ;
#82 = PERSON_AND_ORGANIZATION_ROLE ( 'design_owner' ) ;
#83 = PERSON_AND_ORGANIZATION_ROLE ( 'design_supplier' ) ;
#84 = APPROVAL ( #174, 'UNSPECIFIED' ) ;
#85 = AXIS2_PLACEMENT_3D ( 'NONE', #88, #56, #121 ) ;
#86 = LOCAL_TIME ( 15, 59, 5.000000000000000000, #153 ) ;
#87 = ADVANCED_FACE ( 'NONE', ( #75, #96 ), #136, .T. ) ;
#88 = CARTESIAN_POINT ( 'NONE',  ( 5.237222008264697666E-15, -1.828864403753139615E-16, 1.499999999999999334 ) ) ;
#89 = ORIENTED_EDGE ( 'NONE', *, *, #64, .F. ) ;
#90 = ORIENTED_EDGE ( 'NONE', *, *, #158, .T. ) ;
#91 = DIRECTION ( 'NONE',  ( 3.491481338843133355E-15, -1.219242935835426903E-16, 1.000000000000000000 ) ) ;
#92 = CARTESIAN_POINT ( 'NONE',  ( -3.462302365063691015E-30, -0.2999999999999999334, -9.916428097567574654E-16 ) ) ;
#93 = ADVANCED_FACE ( 'NONE', ( #149 ), #44, .T. ) ;
#94 = DIRECTION ( 'NONE',  ( -3.491481338843133355E-15, 1.224646799147353207E-16, -1.000000000000000000 ) ) ;
#95 = VERTEX_POINT ( 'NONE', #145 ) ;
#96 = FACE_BOUND ( 'NONE', #5, .T. ) ;
#97 = AXIS2_PLACEMENT_3D ( 'NONE', #12, #28, #185 ) ;
#98 = CARTESIAN_POINT ( 'NONE',  ( 1.316288464743861212E-13, -4.616918432785521081E-15, 37.69999999999999574 ) ) ;
#99 = DIRECTION ( 'NONE',  ( 3.491481338843133355E-15, -1.219242935835426903E-16, 1.000000000000000000 ) ) ;
#100 = COORDINATED_UNIVERSAL_TIME_OFFSET ( 1, 0, .AHEAD. ) ;
#101 = CC_DESIGN_PERSON_AND_ORGANIZATION_ASSIGNMENT ( #240, #137, ( #198 ) ) ;
#102 = EDGE_LOOP ( 'NONE', ( #107 ) ) ;
#103 = EDGE_LOOP ( 'NONE', ( #105 ) ) ;
#104 = CC_DESIGN_SECURITY_CLASSIFICATION ( #167, ( #122 ) ) ;
#105 = ORIENTED_EDGE ( 'NONE', *, *, #158, .F. ) ;
#106 = CC_DESIGN_DATE_AND_TIME_ASSIGNMENT ( #148, #17, ( #167 ) ) ;
#107 = ORIENTED_EDGE ( 'NONE', *, *, #207, .F. ) ;
#108 = DIRECTION ( 'NONE',  ( 0.0000000000000000000, -1.000000000000000000, 0.0000000000000000000 ) ) ;
#109 = APPROVAL ( #79, 'UNSPECIFIED' ) ;
#110 = AXIS2_PLACEMENT_3D ( 'NONE', #98, #147, #236 ) ;
#111 = PERSON ( 'UNSPECIFIED', 'UNSPECIFIED', 'UNSPECIFIED', ('UNSPECIFIED'), ('UNSPECIFIED'), ('UNSPECIFIED') ) ;
#112 = DIRECTION ( 'NONE',  ( -4.275831445896958607E-31, -1.000000000000000000, -1.224646799147353207E-16 ) ) ;
#113 = CARTESIAN_POINT ( 'NONE',  ( 0.0000000000000000000, 0.0000000000000000000, 0.0000000000000000000 ) ) ;
#114 = DIRECTION ( 'NONE',  ( 3.491481338843133355E-15, -1.219242935835426903E-16, 1.000000000000000000 ) ) ;
#115 = APPROVAL_STATUS ( 'not_yet_approved' ) ;
#116 = APPROVAL_DATE_TIME ( #30, #230 ) ;
#117 = DATE_AND_TIME ( #170, #131 ) ;
#118 = COORDINATED_UNIVERSAL_TIME_OFFSET ( 1, 0, .AHEAD. ) ;
#119 = AXIS2_PLACEMENT_3D ( 'NONE', #128, #99, #108 ) ;
#120 = APPROVAL_PERSON_ORGANIZATION ( #77, #230, #219 ) ;
#121 = DIRECTION ( 'NONE',  ( 0.0000000000000000000, -1.000000000000000000, 0.0000000000000000000 ) ) ;
#122 = PRODUCT_DEFINITION_FORMATION_WITH_SPECIFIED_SOURCE ( 'ANY', '', #212, .NOT_KNOWN. ) ;
#123 = ADVANCED_FACE ( 'NONE', ( #144 ), #164, .F. ) ;
#124 = EDGE_LOOP ( 'NONE', ( #202 ) ) ;
#125 = DIRECTION ( 'NONE',  ( 3.491481338843133355E-15, -1.219242935835426903E-16, 1.000000000000000000 ) ) ;
#126 = AXIS2_PLACEMENT_3D ( 'NONE', #25, #91, #162 ) ;
#127 =( NAMED_UNIT ( * ) SI_UNIT ( $, .STERADIAN. ) SOLID_ANGLE_UNIT ( ) );
#128 = CARTESIAN_POINT ( 'NONE',  ( 7.044545740489955625E-15, -2.459990988554962605E-16, 2.017638090205028156 ) ) ;
#129 = APPROVAL_ROLE ( '' ) ;
#130 = DIRECTION ( 'NONE',  ( -4.318720456597940409E-31, -1.000000000000000000, -1.219242935835426903E-16 ) ) ;
#131 = LOCAL_TIME ( 15, 59, 5.000000000000000000, #100 ) ;
#132 = CC_DESIGN_PERSON_AND_ORGANIZATION_ASSIGNMENT ( #47, #83, ( #122 ) ) ;
#133 = SHAPE_DEFINITION_REPRESENTATION ( #241, #152 ) ;
#134 = DATE_AND_TIME ( #194, #38 ) ;
#135 = MANIFOLD_SOLID_BREP ( 'Corps-Déplacer/Copier1[1]', #61 ) ;
#136 = CONICAL_SURFACE ( 'NONE', #223, 1.199999999999993738, 0.7853981633974453924 ) ;
#137 = PERSON_AND_ORGANIZATION_ROLE ( 'creator' ) ;
#138 = EDGE_LOOP ( 'NONE', ( #199 ) ) ;
#139 = DIRECTION ( 'NONE',  ( -3.491481338843133355E-15, 1.224646799147353207E-16, -1.000000000000000000 ) ) ;
#140 = CIRCLE ( 'NONE', #196, 1.499999999999991562 ) ;
#141 = FACE_OUTER_BOUND ( 'NONE', #228, .T. ) ;
#142 = CC_DESIGN_APPROVAL ( #230, ( #122 ) ) ;
#143 = DIRECTION ( 'NONE',  ( 3.491481338843133355E-15, -1.224646799147353207E-16, 1.000000000000000000 ) ) ;
#144 = FACE_OUTER_BOUND ( 'NONE', #103, .T. ) ;
#145 = CARTESIAN_POINT ( 'NONE',  ( 7.044545740489955625E-15, -0.3681483474218604779, 2.017638090205028156 ) ) ;
#146 = CARTESIAN_POINT ( 'NONE',  ( 5.237222008264697666E-15, -1.828864403753139615E-16, 1.499999999999999334 ) ) ;
#147 = DIRECTION ( 'NONE',  ( -3.491481338843133355E-15, 1.224646799147353207E-16, -1.000000000000000000 ) ) ;
#148 = DATE_AND_TIME ( #238, #8 ) ;
#149 = FACE_OUTER_BOUND ( 'NONE', #124, .T. ) ;
#150 = CARTESIAN_POINT ( 'NONE',  ( 2.179300938563135813E-14, -1.499999999999992450, 6.241765964257522725 ) ) ;
#151 = CC_DESIGN_PERSON_AND_ORGANIZATION_ASSIGNMENT ( #68, #82, ( #212 ) ) ;
#152 = ADVANCED_BREP_SHAPE_REPRESENTATION ( '964119', ( #135, #60, #19 ), #215 ) ;
#153 = COORDINATED_UNIVERSAL_TIME_OFFSET ( 1, 0, .AHEAD. ) ;
#154 = COORDINATED_UNIVERSAL_TIME_OFFSET ( 1, 0, .AHEAD. ) ;
#155 = DIRECTION ( 'NONE',  ( 0.0000000000000000000, 0.0000000000000000000, 1.000000000000000000 ) ) ;
#156 = ORGANIZATION ( 'UNSPECIFIED', 'UNSPECIFIED', '' ) ;
#157 = FACE_OUTER_BOUND ( 'NONE', #7, .T. ) ;
#158 = EDGE_CURVE ( 'NONE', #234, #234, #41, .T. ) ;
#159 = CARTESIAN_POINT ( 'NONE',  ( 2.179300938563135813E-14, -7.610229059058986346E-16, 6.241765964257522725 ) ) ;
#160 = ORIENTED_EDGE ( 'NONE', *, *, #24, .T. ) ;
#161 = APPROVAL_PERSON_ORGANIZATION ( #20, #109, #129 ) ;
#162 = DIRECTION ( 'NONE',  ( 0.0000000000000000000, -1.000000000000000000, 0.0000000000000000000 ) ) ;
#163 = CARTESIAN_POINT ( 'NONE',  ( -1.282754905350004587E-30, 4.499298539707956128E-32, -3.673956068672651857E-16 ) ) ;
#164 = PLANE ( 'NONE',  #97 ) ;
#165 = AXIS2_PLACEMENT_3D ( 'NONE', #187, #27, #14 ) ;
#166 = VERTEX_POINT ( 'NONE', #13 ) ;
#167 = SECURITY_CLASSIFICATION ( '', '', #218 ) ;
#168 = DIRECTION ( 'NONE',  ( 1.000000000000000000, 0.0000000000000000000, 0.0000000000000000000 ) ) ;
#169 = FACE_OUTER_BOUND ( 'NONE', #39, .T. ) ;
#170 = CALENDAR_DATE ( 2021, 16, 11 ) ;
#171 = ADVANCED_FACE ( 'NONE', ( #169 ), #76, .F. ) ;
#172 = APPLICATION_PROTOCOL_DEFINITION ( 'international standard', 'config_control_design', 1994, #193 ) ;
#173 = CIRCLE ( 'NONE', #165, 1.199999999999993738 ) ;
#174 = APPROVAL_STATUS ( 'not_yet_approved' ) ;
#175 = ORIENTED_EDGE ( 'NONE', *, *, #9, .F. ) ;
#176 = CC_DESIGN_PERSON_AND_ORGANIZATION_ASSIGNMENT ( #67, #192, ( #122 ) ) ;
#177 = DIRECTION ( 'NONE',  ( -3.491481338843133355E-15, 1.219242935835426903E-16, -1.000000000000000000 ) ) ;
#178 = AXIS2_PLACEMENT_3D ( 'NONE', #4, #139, #225 ) ;
#179 = EDGE_LOOP ( 'NONE', ( #90 ) ) ;
#180 = ORIENTED_EDGE ( 'NONE', *, *, #9, .T. ) ;
#181 = EDGE_LOOP ( 'NONE', ( #180 ) ) ;
#182 =( LENGTH_UNIT ( ) NAMED_UNIT ( * ) SI_UNIT ( .MILLI., .METRE. ) );
#183 = AXIS2_PLACEMENT_3D ( 'NONE', #113, #125, #184 ) ;
#184 = DIRECTION ( 'NONE',  ( -4.256963957985708889E-31, -1.000000000000000000, -1.219242935835426656E-16 ) ) ;
#185 = DIRECTION ( 'NONE',  ( -4.275831445896958607E-31, -1.000000000000000000, -1.224646799147353207E-16 ) ) ;
#186 =( NAMED_UNIT ( * ) PLANE_ANGLE_UNIT ( ) SI_UNIT ( $, .RADIAN. ) );
#187 = CARTESIAN_POINT ( 'NONE',  ( 1.326762908760390423E-13, -4.653657836759941941E-15, 38.00000000000000000 ) ) ;
#188 = DIRECTION ( 'NONE',  ( 4.275831445896958607E-31, 1.000000000000000000, 1.224646799147353207E-16 ) ) ;
#189 = CLOSED_SHELL ( 'NONE', ( #93, #50, #49 ) ) ;
#190 = CARTESIAN_POINT ( 'NONE',  ( 1.326762908760390423E-13, 1.199999999999989297, 38.00000000000000000 ) ) ;
#191 = DIRECTION ( 'NONE',  ( -4.275831445896958607E-31, -1.000000000000000000, -1.224646799147353207E-16 ) ) ;
#192 = PERSON_AND_ORGANIZATION_ROLE ( 'creator' ) ;
#193 = APPLICATION_CONTEXT ( 'configuration controlled 3d designs of mechanical parts and assemblies' ) ;
#194 = CALENDAR_DATE ( 2021, 16, 11 ) ;
#195 = CALENDAR_DATE ( 2021, 16, 11 ) ;
#196 = AXIS2_PLACEMENT_3D ( 'NONE', #159, #177, #73 ) ;
#197 = APPROVAL_DATE_TIME ( #66, #84 ) ;
#198 = PRODUCT_DEFINITION ( 'UNKNOWN', '', #122, #2 ) ;
#199 = ORIENTED_EDGE ( 'NONE', *, *, #55, .F. ) ;
#200 = AXIS2_PLACEMENT_3D ( 'NONE', #206, #143, #112 ) ;
#201 = CARTESIAN_POINT ( 'NONE',  ( -3.334593446324119757E-30, 1.164456890570383054E-31, -9.550655216816948358E-16 ) ) ;
#202 = ORIENTED_EDGE ( 'NONE', *, *, #32, .T. ) ;
#203 = CC_DESIGN_PERSON_AND_ORGANIZATION_ASSIGNMENT ( #51, #53, ( #167 ) ) ;
#204 = DIRECTION ( 'NONE',  ( -4.256963957985718523E-31, -1.000000000000000000, -1.219242935835426903E-16 ) ) ;
#205 = TOROIDAL_SURFACE ( 'NONE', #16, 2.299999999999999822, 2.000000000000000000 ) ;
#206 = CARTESIAN_POINT ( 'NONE',  ( 5.237222008264700033E-15, -2.168404344971014538E-16, 1.500000000000000000 ) ) ;
#207 = EDGE_CURVE ( 'NONE', #45, #45, #80, .T. ) ;
#208 = ADVANCED_FACE ( 'NONE', ( #46, #29 ), #205, .F. ) ;
#209 = DIRECTION ( 'NONE',  ( 3.491481338843133355E-15, -1.224646799147353207E-16, 1.000000000000000000 ) ) ;
#210 = CARTESIAN_POINT ( 'NONE',  ( 5.237222008264697666E-15, -0.3000000000000002665, 1.499999999999999334 ) ) ;
#211 = CYLINDRICAL_SURFACE ( 'NONE', #183, 0.3000000000000000444 ) ;
#212 = PRODUCT ( '964119', '964119', '', ( #63 ) ) ;
#213 = DIRECTION ( 'NONE',  ( 0.0000000000000000000, -1.000000000000000000, 0.0000000000000000000 ) ) ;
#214 = APPROVAL_DATE_TIME ( #134, #109 ) ;
#215 =( GEOMETRIC_REPRESENTATION_CONTEXT ( 3 ) GLOBAL_UNCERTAINTY_ASSIGNED_CONTEXT ( ( #71 ) ) GLOBAL_UNIT_ASSIGNED_CONTEXT ( ( #182, #186, #127 ) ) REPRESENTATION_CONTEXT ( 'NONE', 'WORKASPACE' ) );
#216 = FACE_OUTER_BOUND ( 'NONE', #181, .T. ) ;
#217 = COORDINATED_UNIVERSAL_TIME_OFFSET ( 1, 0, .AHEAD. ) ;
#218 = SECURITY_CLASSIFICATION_LEVEL ( 'unclassified' ) ;
#219 = APPROVAL_ROLE ( '' ) ;
#220 = CC_DESIGN_APPROVAL ( #109, ( #198 ) ) ;
#221 = PERSON_AND_ORGANIZATION ( #111, #156 ) ;
#222 = ADVANCED_FACE ( 'NONE', ( #78, #216 ), #3, .T. ) ;
#223 = AXIS2_PLACEMENT_3D ( 'NONE', #42, #94, #74 ) ;
#224 = ORIENTED_EDGE ( 'NONE', *, *, #207, .T. ) ;
#225 = DIRECTION ( 'NONE',  ( 4.275831445896958607E-31, 1.000000000000000000, 1.224646799147353207E-16 ) ) ;
#226 = EDGE_LOOP ( 'NONE', ( #160 ) ) ;
#227 = AXIS2_PLACEMENT_3D ( 'NONE', #163, #209, #191 ) ;
#228 = EDGE_LOOP ( 'NONE', ( #175 ) ) ;
#229 = VERTEX_POINT ( 'NONE', #190 ) ;
#230 = APPROVAL ( #115, 'UNSPECIFIED' ) ;
#231 = FACE_OUTER_BOUND ( 'NONE', #226, .T. ) ;
#232 = CIRCLE ( 'NONE', #85, 0.3000000000000000999 ) ;
#233 = DIRECTION ( 'NONE',  ( -3.491481338843133355E-15, 1.224646799147353207E-16, -1.000000000000000000 ) ) ;
#234 = VERTEX_POINT ( 'NONE', #210 ) ;
#235 = VERTEX_POINT ( 'NONE', #150 ) ;
#236 = DIRECTION ( 'NONE',  ( 0.0000000000000000000, 1.000000000000000000, 0.0000000000000000000 ) ) ;
#237 = CARTESIAN_POINT ( 'NONE',  ( 5.237222008264697666E-15, 0.0000000000000000000, 1.499999999999999334 ) ) ;
#238 = CALENDAR_DATE ( 2021, 16, 11 ) ;
#239 = CALENDAR_DATE ( 2021, 16, 11 ) ;
#240 = PERSON_AND_ORGANIZATION ( #111, #156 ) ;
#241 = PRODUCT_DEFINITION_SHAPE ( 'NONE', 'NONE',  #198 ) ;
#242 = APPLICATION_CONTEXT ( 'configuration controlled 3d designs of mechanical parts and assemblies' ) ;
#243 = PRODUCT_RELATED_PRODUCT_CATEGORY ( 'detail', '', ( #212 ) ) ;
ENDSEC;
END-ISO-10303-21;
