ISO-10303-21;
HEADER;
FILE_DESCRIPTION (( 'STEP AP203' ),
    '1' );
FILE_NAME ('964118.step',
    '2021-11-16T14:59:04',
    ( '' ),
    ( '' ),
    'SwSTEP 2.0',
    'SolidWorks 2019',
    '' );
FILE_SCHEMA (( 'CONFIG_CONTROL_DESIGN' ));
ENDSEC;

DATA;
#1 = FACE_BOUND ( 'NONE', #237, .T. ) ;
#2 = AXIS2_PLACEMENT_3D ( 'NONE', #125, #203, #122 ) ;
#3 = CALENDAR_DATE ( 2021, 16, 11 ) ;
#4 = VERTEX_POINT ( 'NONE', #129 ) ;
#5 = LOCAL_TIME ( 15, 59, 4.000000000000000000, #67 ) ;
#6 = MANIFOLD_SOLID_BREP ( 'Corps-Déplacer/Copier1[1]', #99 ) ;
#7 = DIRECTION ( 'NONE',  ( 0.0000000000000000000, -1.000000000000000000, 0.0000000000000000000 ) ) ;
#8 = APPROVAL_PERSON_ORGANIZATION ( #23, #193, #55 ) ;
#9 = ORIENTED_EDGE ( 'NONE', *, *, #10, .T. ) ;
#10 = EDGE_CURVE ( 'NONE', #170, #170, #230, .T. ) ;
#11 = DIRECTION ( 'NONE',  ( 0.0000000000000000000, -1.000000000000000000, 0.0000000000000000000 ) ) ;
#12 = DIRECTION ( 'NONE',  ( 3.491481338843133355E-15, -1.219242935835426903E-16, 1.000000000000000000 ) ) ;
#13 = CARTESIAN_POINT ( 'NONE',  ( 4.888073874380385909E-15, -2.023844055306280203E-16, 1.399999999999999689 ) ) ;
#14 = AXIS2_PLACEMENT_3D ( 'NONE', #240, #21, #174 ) ;
#15 = DIRECTION ( 'NONE',  ( 3.491481338843133355E-15, -1.224646799147353207E-16, 1.000000000000000000 ) ) ;
#16 = DIRECTION ( 'NONE',  ( -4.256963957985714144E-31, -1.000000000000000000, -1.219242935835423944E-16 ) ) ;
#17 = DATE_AND_TIME ( #206, #145 ) ;
#18 = VERTEX_POINT ( 'NONE', #74 ) ;
#19 = DIRECTION ( 'NONE',  ( 0.0000000000000000000, 0.0000000000000000000, 1.000000000000000000 ) ) ;
#20 = PERSON ( 'UNSPECIFIED', 'UNSPECIFIED', 'UNSPECIFIED', ('UNSPECIFIED'), ('UNSPECIFIED'), ('UNSPECIFIED') ) ;
#21 = DIRECTION ( 'NONE',  ( 3.491481338843133355E-15, -1.219242935835426903E-16, 1.000000000000000000 ) ) ;
#22 = CC_DESIGN_APPROVAL ( #193, ( #238 ) ) ;
#23 = PERSON_AND_ORGANIZATION ( #20, #190 ) ;
#24 = AXIS2_PLACEMENT_3D ( 'NONE', #185, #202, #11 ) ;
#25 = EDGE_LOOP ( 'NONE', ( #132 ) ) ;
#26 = ORIENTED_EDGE ( 'NONE', *, *, #234, .T. ) ;
#27 = AXIS2_PLACEMENT_3D ( 'NONE', #243, #15, #32 ) ;
#28 = PLANE ( 'NONE',  #38 ) ;
#29 = PLANE ( 'NONE',  #225 ) ;
#30 = FACE_OUTER_BOUND ( 'NONE', #43, .T. ) ;
#31 = CIRCLE ( 'NONE', #24, 0.2750000000000002442 ) ;
#32 = DIRECTION ( 'NONE',  ( -4.275831445896958607E-31, -1.000000000000000000, -1.224646799147353207E-16 ) ) ;
#33 = CARTESIAN_POINT ( 'NONE',  ( 6.695397606605640712E-15, -0.3431483474218605112, 1.917638090205028067 ) ) ;
#34 = LOCAL_TIME ( 15, 59, 4.000000000000000000, #232 ) ;
#35 =( LENGTH_UNIT ( ) NAMED_UNIT ( * ) SI_UNIT ( .MILLI., .METRE. ) );
#36 = MECHANICAL_CONTEXT ( 'NONE', #212, 'mechanical' ) ;
#37 = PERSON_AND_ORGANIZATION ( #20, #190 ) ;
#38 = AXIS2_PLACEMENT_3D ( 'NONE', #160, #88, #120 ) ;
#39 = PRODUCT_DEFINITION_SHAPE ( 'NONE', 'NONE',  #238 ) ;
#40 = ADVANCED_FACE ( 'NONE', ( #223 ), #28, .F. ) ;
#41 = AXIS2_PLACEMENT_3D ( 'NONE', #127, #90, #7 ) ;
#42 = ORIENTED_EDGE ( 'NONE', *, *, #80, .T. ) ;
#43 = EDGE_LOOP ( 'NONE', ( #156 ) ) ;
#44 = ADVANCED_FACE ( 'NONE', ( #63, #141 ), #91, .F. ) ;
#45 = CARTESIAN_POINT ( 'NONE',  ( 0.0000000000000000000, 0.0000000000000000000, 0.0000000000000000000 ) ) ;
#46 = APPROVAL ( #110, 'UNSPECIFIED' ) ;
#47 = PLANE ( 'NONE',  #195 ) ;
#48 = FACE_OUTER_BOUND ( 'NONE', #93, .T. ) ;
#49 = CALENDAR_DATE ( 2021, 16, 11 ) ;
#50 = FACE_OUTER_BOUND ( 'NONE', #194, .T. ) ;
#51 = CARTESIAN_POINT ( 'NONE',  ( 1.316288464743861212E-13, -4.616918432785521081E-15, 37.69999999999999574 ) ) ;
#52 = APPROVAL_ROLE ( '' ) ;
#53 = EDGE_CURVE ( 'NONE', #4, #4, #71, .T. ) ;
#54 = CIRCLE ( 'NONE', #168, 0.2750000000000002442 ) ;
#55 = APPROVAL_ROLE ( '' ) ;
#56 = PERSON_AND_ORGANIZATION_ROLE ( 'design_owner' ) ;
#57 =( NAMED_UNIT ( * ) PLANE_ANGLE_UNIT ( ) SI_UNIT ( $, .RADIAN. ) );
#58 = ADVANCED_FACE ( 'NONE', ( #1, #200 ), #157, .T. ) ;
#59 = CC_DESIGN_DATE_AND_TIME_ASSIGNMENT ( #72, #211, ( #238 ) ) ;
#60 = EDGE_LOOP ( 'NONE', ( #158 ) ) ;
#61 = CARTESIAN_POINT ( 'NONE',  ( -3.323951036429154668E-30, 1.160740507228921495E-31, -9.520174143421060861E-16 ) ) ;
#62 =( GEOMETRIC_REPRESENTATION_CONTEXT ( 3 ) GLOBAL_UNCERTAINTY_ASSIGNED_CONTEXT ( ( #75 ) ) GLOBAL_UNIT_ASSIGNED_CONTEXT ( ( #35, #57, #213 ) ) REPRESENTATION_CONTEXT ( 'NONE', 'WORKASPACE' ) );
#63 = FACE_OUTER_BOUND ( 'NONE', #79, .T. ) ;
#64 = LOCAL_TIME ( 15, 59, 4.000000000000000000, #207 ) ;
#65 = DIRECTION ( 'NONE',  ( -4.275831445896958607E-31, -1.000000000000000000, -1.224646799147353207E-16 ) ) ;
#66 = FACE_OUTER_BOUND ( 'NONE', #112, .T. ) ;
#67 = COORDINATED_UNIVERSAL_TIME_OFFSET ( 1, 0, .AHEAD. ) ;
#68 = DIRECTION ( 'NONE',  ( 0.0000000000000000000, -1.000000000000000000, 0.0000000000000000000 ) ) ;
#69 = DIRECTION ( 'NONE',  ( 3.491481338843133355E-15, -1.224646799147353207E-16, 1.000000000000000000 ) ) ;
#70 = PERSON_AND_ORGANIZATION_ROLE ( 'classification_officer' ) ;
#71 = CIRCLE ( 'NONE', #161, 1.199999999999993738 ) ;
#72 = DATE_AND_TIME ( #3, #34 ) ;
#73 = ADVANCED_FACE ( 'NONE', ( #89 ), #29, .F. ) ;
#74 = CARTESIAN_POINT ( 'NONE',  ( 2.176962089550307983E-14, -1.499999999999992450, 6.235067234446747264 ) ) ;
#75 = UNCERTAINTY_MEASURE_WITH_UNIT (LENGTH_MEASURE( 1.000000000000000082E-05 ), #35, 'distance_accuracy_value', 'NONE');
#76 = APPLICATION_PROTOCOL_DEFINITION ( 'international standard', 'config_control_design', 1994, #212 ) ;
#77 = VERTEX_POINT ( 'NONE', #187 ) ;
#78 = PRODUCT ( '964118', '964118', '', ( #36 ) ) ;
#79 = EDGE_LOOP ( 'NONE', ( #96 ) ) ;
#80 = EDGE_CURVE ( 'NONE', #130, #130, #81, .T. ) ;
#81 = CIRCLE ( 'NONE', #214, 1.499999999999993783 ) ;
#82 = DATE_AND_TIME ( #108, #64 ) ;
#83 = ADVANCED_FACE ( 'NONE', ( #48 ), #47, .F. ) ;
#84 = CARTESIAN_POINT ( 'NONE',  ( 3.480000664574461079E-14, -1.215233826336550396E-15, 9.967118042015725266 ) ) ;
#85 = DIRECTION ( 'NONE',  ( 0.0000000000000000000, -1.000000000000000000, 0.0000000000000000000 ) ) ;
#86 = CIRCLE ( 'NONE', #14, 0.3431483474218602892 ) ;
#87 = DIRECTION ( 'NONE',  ( 0.0000000000000000000, 1.000000000000000000, 0.0000000000000000000 ) ) ;
#88 = DIRECTION ( 'NONE',  ( -3.491481338843133355E-15, 1.224646799147353207E-16, -1.000000000000000000 ) ) ;
#89 = FACE_OUTER_BOUND ( 'NONE', #60, .T. ) ;
#90 = DIRECTION ( 'NONE',  ( -3.491481338843133355E-15, 1.219242935835426903E-16, -1.000000000000000000 ) ) ;
#91 = TOROIDAL_SURFACE ( 'NONE', #180, 2.274999999999999911, 2.000000000000000000 ) ;
#92 = APPROVAL_DATE_TIME ( #131, #193 ) ;
#93 = EDGE_LOOP ( 'NONE', ( #135 ) ) ;
#94 = CC_DESIGN_APPROVAL ( #46, ( #177 ) ) ;
#95 = CC_DESIGN_APPROVAL ( #191, ( #103 ) ) ;
#96 = ORIENTED_EDGE ( 'NONE', *, *, #138, .T. ) ;
#97 = ORIENTED_EDGE ( 'NONE', *, *, #80, .F. ) ;
#98 = ADVANCED_FACE ( 'NONE', ( #224, #66 ), #219, .T. ) ;
#99 = CLOSED_SHELL ( 'NONE', ( #98, #171, #40, #58, #44, #83 ) ) ;
#100 = DIRECTION ( 'NONE',  ( 0.0000000000000000000, 1.000000000000000000, 0.0000000000000000000 ) ) ;
#101 = DIRECTION ( 'NONE',  ( 3.491481338843133355E-15, -1.219242935835426903E-16, 1.000000000000000000 ) ) ;
#102 = APPROVAL_DATE_TIME ( #17, #191 ) ;
#103 = SECURITY_CLASSIFICATION ( '', '', #242 ) ;
#104 = CARTESIAN_POINT ( 'NONE',  ( -1.282754905350004587E-30, 4.499298539707956128E-32, -3.673956068672651857E-16 ) ) ;
#105 = PERSON_AND_ORGANIZATION ( #20, #190 ) ;
#106 = DIRECTION ( 'NONE',  ( -3.491481338843133355E-15, 1.224646799147353207E-16, -1.000000000000000000 ) ) ;
#107 = DIRECTION ( 'NONE',  ( 1.000000000000000000, 0.0000000000000000000, 0.0000000000000000000 ) ) ;
#108 = CALENDAR_DATE ( 2021, 16, 11 ) ;
#109 = CALENDAR_DATE ( 2021, 16, 11 ) ;
#110 = APPROVAL_STATUS ( 'not_yet_approved' ) ;
#111 = AXIS2_PLACEMENT_3D ( 'NONE', #84, #162, #68 ) ;
#112 = EDGE_LOOP ( 'NONE', ( #115 ) ) ;
#113 = ADVANCED_BREP_SHAPE_REPRESENTATION ( '964118', ( #6, #163, #137 ), #62 ) ;
#114 = CIRCLE ( 'NONE', #41, 1.499999999999991562 ) ;
#115 = ORIENTED_EDGE ( 'NONE', *, *, #234, .F. ) ;
#116 = CC_DESIGN_SECURITY_CLASSIFICATION ( #103, ( #177 ) ) ;
#117 = ORIENTED_EDGE ( 'NONE', *, *, #53, .T. ) ;
#118 = CC_DESIGN_PERSON_AND_ORGANIZATION_ASSIGNMENT ( #151, #56, ( #78 ) ) ;
#119 = DIRECTION ( 'NONE',  ( 3.491481338843133355E-15, -1.219242935835426903E-16, 1.000000000000000000 ) ) ;
#120 = DIRECTION ( 'NONE',  ( 4.275831445896958607E-31, 1.000000000000000000, 1.224646799147353207E-16 ) ) ;
#121 = COORDINATED_UNIVERSAL_TIME_OFFSET ( 1, 0, .AHEAD. ) ;
#122 = DIRECTION ( 'NONE',  ( 4.275831445896958607E-31, 1.000000000000000000, 1.224646799147353207E-16 ) ) ;
#123 = LOCAL_TIME ( 15, 59, 4.000000000000000000, #149 ) ;
#124 = DIRECTION ( 'NONE',  ( 3.491481338843133355E-15, -1.219242935835426903E-16, 1.000000000000000000 ) ) ;
#125 = CARTESIAN_POINT ( 'NONE',  ( 0.0000000000000000000, 0.0000000000000000000, 0.0000000000000000000 ) ) ;
#126 = CC_DESIGN_PERSON_AND_ORGANIZATION_ASSIGNMENT ( #105, #70, ( #103 ) ) ;
#127 = CARTESIAN_POINT ( 'NONE',  ( 2.176962089550307983E-14, -7.602061680058127620E-16, 6.235067234446747264 ) ) ;
#128 = DESIGN_CONTEXT ( 'detailed design', #226, 'design' ) ;
#129 = CARTESIAN_POINT ( 'NONE',  ( 1.326762908760390423E-13, 1.199999999999989297, 38.00000000000000000 ) ) ;
#130 = VERTEX_POINT ( 'NONE', #228 ) ;
#131 = DATE_AND_TIME ( #109, #123 ) ;
#132 = ORIENTED_EDGE ( 'NONE', *, *, #192, .F. ) ;
#133 = EDGE_LOOP ( 'NONE', ( #9 ) ) ;
#134 = APPROVAL_PERSON_ORGANIZATION ( #201, #191, #186 ) ;
#135 = ORIENTED_EDGE ( 'NONE', *, *, #138, .F. ) ;
#136 = CYLINDRICAL_SURFACE ( 'NONE', #208, 0.2750000000000001887 ) ;
#137 = AXIS2_PLACEMENT_3D ( 'NONE', #188, #19, #107 ) ;
#138 = EDGE_CURVE ( 'NONE', #172, #172, #31, .T. ) ;
#139 = CARTESIAN_POINT ( 'NONE',  ( 4.888073874380383542E-15, 0.0000000000000000000, 1.399999999999999023 ) ) ;
#140 = PERSON_AND_ORGANIZATION ( #20, #190 ) ;
#141 = FACE_OUTER_BOUND ( 'NONE', #154, .T. ) ;
#142 = PERSON_AND_ORGANIZATION_ROLE ( 'creator' ) ;
#143 = CARTESIAN_POINT ( 'NONE',  ( 1.326762908760390423E-13, -4.653657836759941941E-15, 38.00000000000000000 ) ) ;
#144 = PERSON_AND_ORGANIZATION_ROLE ( 'design_supplier' ) ;
#145 = LOCAL_TIME ( 15, 59, 4.000000000000000000, #121 ) ;
#146 = ADVANCED_FACE ( 'NONE', ( #30 ), #184, .T. ) ;
#147 = DATE_AND_TIME ( #49, #5 ) ;
#148 = CC_DESIGN_PERSON_AND_ORGANIZATION_ASSIGNMENT ( #189, #153, ( #238 ) ) ;
#149 = COORDINATED_UNIVERSAL_TIME_OFFSET ( 1, 0, .AHEAD. ) ;
#150 = VERTEX_POINT ( 'NONE', #33 ) ;
#151 = PERSON_AND_ORGANIZATION ( #20, #190 ) ;
#152 = AXIS2_PLACEMENT_3D ( 'NONE', #61, #124, #16 ) ;
#153 = PERSON_AND_ORGANIZATION_ROLE ( 'creator' ) ;
#154 = EDGE_LOOP ( 'NONE', ( #235 ) ) ;
#155 = EDGE_LOOP ( 'NONE', ( #26 ) ) ;
#156 = ORIENTED_EDGE ( 'NONE', *, *, #192, .T. ) ;
#157 = CONICAL_SURFACE ( 'NONE', #111, 2.499999999999992895, 0.2617993877991429685 ) ;
#158 = ORIENTED_EDGE ( 'NONE', *, *, #10, .F. ) ;
#159 = DIRECTION ( 'NONE',  ( -4.275831445896958607E-31, -1.000000000000000000, -1.224646799147353207E-16 ) ) ;
#160 = CARTESIAN_POINT ( 'NONE',  ( 1.326762908760390423E-13, 8.998558695971030697E-33, 38.00000000000000000 ) ) ;
#161 = AXIS2_PLACEMENT_3D ( 'NONE', #181, #241, #100 ) ;
#162 = DIRECTION ( 'NONE',  ( 3.491481338843133355E-15, -1.219242935835426903E-16, 1.000000000000000000 ) ) ;
#163 = MANIFOLD_SOLID_BREP ( 'Corps-Déplacer/Copier1[2]', #178 ) ;
#164 = FACE_BOUND ( 'NONE', #217, .T. ) ;
#165 = APPROVAL_STATUS ( 'not_yet_approved' ) ;
#166 = DIRECTION ( 'NONE',  ( 3.491481338843133355E-15, -1.224646799147353207E-16, 1.000000000000000000 ) ) ;
#167 = SHAPE_DEFINITION_REPRESENTATION ( #39, #113 ) ;
#168 = AXIS2_PLACEMENT_3D ( 'NONE', #182, #12, #85 ) ;
#169 = APPLICATION_PROTOCOL_DEFINITION ( 'international standard', 'config_control_design', 1994, #226 ) ;
#170 = VERTEX_POINT ( 'NONE', #209 ) ;
#171 = ADVANCED_FACE ( 'NONE', ( #50, #164 ), #173, .T. ) ;
#172 = VERTEX_POINT ( 'NONE', #210 ) ;
#173 = CONICAL_SURFACE ( 'NONE', #236, 1.199999999999993738, 0.7853981633974453924 ) ;
#174 = DIRECTION ( 'NONE',  ( 0.0000000000000000000, -1.000000000000000000, 0.0000000000000000000 ) ) ;
#175 = CC_DESIGN_PERSON_AND_ORGANIZATION_ASSIGNMENT ( #204, #144, ( #177 ) ) ;
#176 = ADVANCED_FACE ( 'NONE', ( #205, #239 ), #136, .T. ) ;
#177 = PRODUCT_DEFINITION_FORMATION_WITH_SPECIFIED_SOURCE ( 'ANY', '', #78, .NOT_KNOWN. ) ;
#178 = CLOSED_SHELL ( 'NONE', ( #146, #176, #73 ) ) ;
#179 = ORIENTED_EDGE ( 'NONE', *, *, #218, .T. ) ;
#180 = AXIS2_PLACEMENT_3D ( 'NONE', #139, #101, #221 ) ;
#181 = CARTESIAN_POINT ( 'NONE',  ( 1.326762908760390423E-13, -4.653657836759941941E-15, 38.00000000000000000 ) ) ;
#182 = CARTESIAN_POINT ( 'NONE',  ( 4.888073874380383542E-15, -1.706940110169596530E-16, 1.399999999999999023 ) ) ;
#183 = DIRECTION ( 'NONE',  ( -3.491481338843133355E-15, 1.224646799147353207E-16, -1.000000000000000000 ) ) ;
#184 = PLANE ( 'NONE',  #27 ) ;
#185 = CARTESIAN_POINT ( 'NONE',  ( 4.888073874380383542E-15, -1.706940110169596530E-16, 1.399999999999999023 ) ) ;
#186 = APPROVAL_ROLE ( '' ) ;
#187 = CARTESIAN_POINT ( 'NONE',  ( 4.888073874380383542E-15, -0.2750000000000004108, 1.399999999999999023 ) ) ;
#188 = CARTESIAN_POINT ( 'NONE',  ( 0.0000000000000000000, 0.0000000000000000000, 0.0000000000000000000 ) ) ;
#189 = PERSON_AND_ORGANIZATION ( #20, #190 ) ;
#190 = ORGANIZATION ( 'UNSPECIFIED', 'UNSPECIFIED', '' ) ;
#191 = APPROVAL ( #165, 'UNSPECIFIED' ) ;
#192 = EDGE_CURVE ( 'NONE', #77, #77, #54, .T. ) ;
#193 = APPROVAL ( #231, 'UNSPECIFIED' ) ;
#194 = EDGE_LOOP ( 'NONE', ( #97 ) ) ;
#195 = AXIS2_PLACEMENT_3D ( 'NONE', #13, #166, #159 ) ;
#196 = EDGE_LOOP ( 'NONE', ( #42 ) ) ;
#197 = EDGE_LOOP ( 'NONE', ( #233 ) ) ;
#198 = PRODUCT_RELATED_PRODUCT_CATEGORY ( 'detail', '', ( #78 ) ) ;
#199 = DIRECTION ( 'NONE',  ( -4.256963957985709765E-31, -1.000000000000000000, -1.219242935835426903E-16 ) ) ;
#200 = FACE_OUTER_BOUND ( 'NONE', #155, .T. ) ;
#201 = PERSON_AND_ORGANIZATION ( #20, #190 ) ;
#202 = DIRECTION ( 'NONE',  ( 3.491481338843133355E-15, -1.219242935835426903E-16, 1.000000000000000000 ) ) ;
#203 = DIRECTION ( 'NONE',  ( -3.491481338843133355E-15, 1.224646799147353207E-16, -1.000000000000000000 ) ) ;
#204 = PERSON_AND_ORGANIZATION ( #20, #190 ) ;
#205 = FACE_OUTER_BOUND ( 'NONE', #133, .T. ) ;
#206 = CALENDAR_DATE ( 2021, 16, 11 ) ;
#207 = COORDINATED_UNIVERSAL_TIME_OFFSET ( 1, 0, .AHEAD. ) ;
#208 = AXIS2_PLACEMENT_3D ( 'NONE', #45, #119, #199 ) ;
#209 = CARTESIAN_POINT ( 'NONE',  ( -3.441017545273761538E-30, -0.2750000000000000777, -9.855465950775803604E-16 ) ) ;
#210 = CARTESIAN_POINT ( 'NONE',  ( 4.888073874380383542E-15, -0.2750000000000004108, 1.399999999999999023 ) ) ;
#211 = DATE_TIME_ROLE ( 'creation_date' ) ;
#212 = APPLICATION_CONTEXT ( 'configuration controlled 3d designs of mechanical parts and assemblies' ) ;
#213 =( NAMED_UNIT ( * ) SI_UNIT ( $, .STERADIAN. ) SOLID_ANGLE_UNIT ( ) );
#214 = AXIS2_PLACEMENT_3D ( 'NONE', #51, #183, #87 ) ;
#215 = CC_DESIGN_PERSON_AND_ORGANIZATION_ASSIGNMENT ( #140, #142, ( #177 ) ) ;
#216 = APPROVAL_PERSON_ORGANIZATION ( #37, #46, #52 ) ;
#217 = EDGE_LOOP ( 'NONE', ( #117 ) ) ;
#218 = EDGE_CURVE ( 'NONE', #150, #150, #86, .T. ) ;
#219 = CYLINDRICAL_SURFACE ( 'NONE', #2, 1.499999999999991562 ) ;
#220 = APPROVAL_DATE_TIME ( #82, #46 ) ;
#221 = DIRECTION ( 'NONE',  ( -4.319081605712631913E-31, -1.000000000000000000, -1.219242935835426903E-16 ) ) ;
#222 = DATE_TIME_ROLE ( 'classification_date' ) ;
#223 = FACE_OUTER_BOUND ( 'NONE', #197, .T. ) ;
#224 = FACE_OUTER_BOUND ( 'NONE', #196, .T. ) ;
#225 = AXIS2_PLACEMENT_3D ( 'NONE', #104, #69, #65 ) ;
#226 = APPLICATION_CONTEXT ( 'configuration controlled 3d designs of mechanical parts and assemblies' ) ;
#227 = DIRECTION ( 'NONE',  ( 0.0000000000000000000, 1.000000000000000000, 0.0000000000000000000 ) ) ;
#228 = CARTESIAN_POINT ( 'NONE',  ( 1.316288464743861212E-13, 1.499999999999989120, 37.69999999999999574 ) ) ;
#229 = CC_DESIGN_DATE_AND_TIME_ASSIGNMENT ( #147, #222, ( #103 ) ) ;
#230 = CIRCLE ( 'NONE', #152, 0.2750000000000000777 ) ;
#231 = APPROVAL_STATUS ( 'not_yet_approved' ) ;
#232 = COORDINATED_UNIVERSAL_TIME_OFFSET ( 1, 0, .AHEAD. ) ;
#233 = ORIENTED_EDGE ( 'NONE', *, *, #53, .F. ) ;
#234 = EDGE_CURVE ( 'NONE', #18, #18, #114, .T. ) ;
#235 = ORIENTED_EDGE ( 'NONE', *, *, #218, .F. ) ;
#236 = AXIS2_PLACEMENT_3D ( 'NONE', #143, #106, #227 ) ;
#237 = EDGE_LOOP ( 'NONE', ( #179 ) ) ;
#238 = PRODUCT_DEFINITION ( 'UNKNOWN', '', #177, #128 ) ;
#239 = FACE_OUTER_BOUND ( 'NONE', #25, .T. ) ;
#240 = CARTESIAN_POINT ( 'NONE',  ( 6.695397606605640712E-15, -2.338066694971420013E-16, 1.917638090205028067 ) ) ;
#241 = DIRECTION ( 'NONE',  ( -3.491481338843133355E-15, 1.224646799147353207E-16, -1.000000000000000000 ) ) ;
#242 = SECURITY_CLASSIFICATION_LEVEL ( 'unclassified' ) ;
#243 = CARTESIAN_POINT ( 'NONE',  ( 4.888073874380385909E-15, -2.023844055306280203E-16, 1.399999999999999689 ) ) ;
ENDSEC;
END-ISO-10303-21;
