ISO-10303-21;
HEADER;
FILE_DESCRIPTION (( 'STEP AP203' ),
    '1' );
FILE_NAME ('964117.step',
    '2021-11-16T14:59:04',
    ( '' ),
    ( '' ),
    'SwSTEP 2.0',
    'SolidWorks 2019',
    '' );
FILE_SCHEMA (( 'CONFIG_CONTROL_DESIGN' ));
ENDSEC;

DATA;
#1 = COORDINATED_UNIVERSAL_TIME_OFFSET ( 1, 0, .AHEAD. ) ;
#2 = TOROIDAL_SURFACE ( 'NONE', #139, 2.250000000000000444, 2.000000000000000000 ) ;
#3 = PERSON_AND_ORGANIZATION_ROLE ( 'creator' ) ;
#4 = CC_DESIGN_DATE_AND_TIME_ASSIGNMENT ( #204, #22, ( #47 ) ) ;
#5 = EDGE_LOOP ( 'NONE', ( #163 ) ) ;
#6 = ADVANCED_FACE ( 'NONE', ( #176 ), #216, .F. ) ;
#7 = ADVANCED_FACE ( 'NONE', ( #203, #184 ), #63, .T. ) ;
#8 = EDGE_LOOP ( 'NONE', ( #193 ) ) ;
#9 = DIRECTION ( 'NONE',  ( 3.491481338843133355E-15, -1.219242935835426903E-16, 1.000000000000000000 ) ) ;
#10 =( LENGTH_UNIT ( ) NAMED_UNIT ( * ) SI_UNIT ( .MILLI., .METRE. ) );
#11 = ADVANCED_BREP_SHAPE_REPRESENTATION ( '964117', ( #84, #81, #133 ), #130 ) ;
#12 = DIRECTION ( 'NONE',  ( -3.491481338843133355E-15, 1.224646799147353207E-16, -1.000000000000000000 ) ) ;
#13 = CC_DESIGN_PERSON_AND_ORGANIZATION_ASSIGNMENT ( #38, #115, ( #227 ) ) ;
#14 = EDGE_LOOP ( 'NONE', ( #71 ) ) ;
#15 = DIRECTION ( 'NONE',  ( 3.491481338843133355E-15, -1.224646799147353207E-16, 1.000000000000000000 ) ) ;
#16 = CARTESIAN_POINT ( 'NONE',  ( 3.460204408867417267E-14, -1.208320873757287221E-15, 9.910419312204945541 ) ) ;
#17 = PERSON_AND_ORGANIZATION ( #156, #39 ) ;
#18 = DIRECTION ( 'NONE',  ( 3.491481338843133355E-15, -1.219242935835426903E-16, 1.000000000000000000 ) ) ;
#19 = APPLICATION_PROTOCOL_DEFINITION ( 'international standard', 'config_control_design', 1994, #197 ) ;
#20 = ADVANCED_FACE ( 'NONE', ( #166, #52 ), #224, .T. ) ;
#21 = AXIS2_PLACEMENT_3D ( 'NONE', #218, #200, #35 ) ;
#22 = DATE_TIME_ROLE ( 'creation_date' ) ;
#23 = APPROVAL_STATUS ( 'not_yet_approved' ) ;
#24 = DESIGN_CONTEXT ( 'detailed design', #197, 'design' ) ;
#25 = LOCAL_TIME ( 15, 59, 4.000000000000000000, #94 ) ;
#26 = EDGE_CURVE ( 'NONE', #213, #213, #117, .T. ) ;
#27 = EDGE_LOOP ( 'NONE', ( #173 ) ) ;
#28 = EDGE_LOOP ( 'NONE', ( #178 ) ) ;
#29 = CIRCLE ( 'NONE', #158, 1.499999999999993783 ) ;
#30 = FACE_OUTER_BOUND ( 'NONE', #237, .T. ) ;
#31 = EDGE_LOOP ( 'NONE', ( #196 ) ) ;
#32 = APPROVAL ( #23, 'UNSPECIFIED' ) ;
#33 = FACE_OUTER_BOUND ( 'NONE', #146, .T. ) ;
#34 = APPROVAL_PERSON_ORGANIZATION ( #207, #32, #202 ) ;
#35 = DIRECTION ( 'NONE',  ( -4.256963957985712392E-31, -1.000000000000000000, -1.219242935835429368E-16 ) ) ;
#36 = CARTESIAN_POINT ( 'NONE',  ( 4.364351673553913539E-15, 0.0000000000000000000, 1.249999999999999112 ) ) ;
#37 = DIRECTION ( 'NONE',  ( 3.491481338843133355E-15, -1.219242935835426903E-16, 1.000000000000000000 ) ) ;
#38 = PERSON_AND_ORGANIZATION ( #156, #39 ) ;
#39 = ORGANIZATION ( 'UNSPECIFIED', 'UNSPECIFIED', '' ) ;
#40 = PLANE ( 'NONE',  #144 ) ;
#41 = APPROVAL_DATE_TIME ( #131, #99 ) ;
#42 = CIRCLE ( 'NONE', #138, 1.499999999999991562 ) ;
#43 = ADVANCED_FACE ( 'NONE', ( #107 ), #129, .F. ) ;
#44 = ORIENTED_EDGE ( 'NONE', *, *, #26, .T. ) ;
#45 = EDGE_LOOP ( 'NONE', ( #100 ) ) ;
#46 = DIRECTION ( 'NONE',  ( 0.0000000000000000000, 1.000000000000000000, 0.0000000000000000000 ) ) ;
#47 = PRODUCT_DEFINITION ( 'UNKNOWN', '', #227, #24 ) ;
#48 = CONICAL_SURFACE ( 'NONE', #210, 1.199999999999993738, 0.7853981633974453924 ) ;
#49 = DIRECTION ( 'NONE',  ( 0.0000000000000000000, 1.000000000000000000, 0.0000000000000000000 ) ) ;
#50 = ORIENTED_EDGE ( 'NONE', *, *, #235, .F. ) ;
#51 = FACE_OUTER_BOUND ( 'NONE', #5, .T. ) ;
#52 = FACE_OUTER_BOUND ( 'NONE', #102, .T. ) ;
#53 = ADVANCED_FACE ( 'NONE', ( #151 ), #40, .F. ) ;
#54 = DIRECTION ( 'NONE',  ( 0.0000000000000000000, -1.000000000000000000, 0.0000000000000000000 ) ) ;
#55 = PERSON_AND_ORGANIZATION ( #156, #39 ) ;
#56 = DIRECTION ( 'NONE',  ( 4.275831445896958607E-31, 1.000000000000000000, 1.224646799147353207E-16 ) ) ;
#57 = EDGE_CURVE ( 'NONE', #85, #85, #79, .T. ) ;
#58 = APPROVAL_PERSON_ORGANIZATION ( #55, #232, #136 ) ;
#59 = PERSON_AND_ORGANIZATION_ROLE ( 'classification_officer' ) ;
#60 = EDGE_CURVE ( 'NONE', #125, #125, #42, .T. ) ;
#61 = PERSON_AND_ORGANIZATION ( #156, #39 ) ;
#62 = COORDINATED_UNIVERSAL_TIME_OFFSET ( 1, 0, .AHEAD. ) ;
#63 = CONICAL_SURFACE ( 'NONE', #92, 2.499999999999992895, 0.2617993877991429685 ) ;
#64 = CIRCLE ( 'NONE', #242, 0.3181483474218604890 ) ;
#65 = ADVANCED_FACE ( 'NONE', ( #30, #101 ), #48, .T. ) ;
#66 = PRODUCT_DEFINITION_SHAPE ( 'NONE', 'NONE',  #47 ) ;
#67 = CIRCLE ( 'NONE', #190, 1.199999999999993738 ) ;
#68 = EDGE_LOOP ( 'NONE', ( #192 ) ) ;
#69 = CC_DESIGN_SECURITY_CLASSIFICATION ( #160, ( #227 ) ) ;
#70 = DIRECTION ( 'NONE',  ( -3.491481338843133355E-15, 1.224646799147353207E-16, -1.000000000000000000 ) ) ;
#71 = ORIENTED_EDGE ( 'NONE', *, *, #93, .T. ) ;
#72 = CARTESIAN_POINT ( 'NONE',  ( 4.364351673553913539E-15, -1.524053669794282642E-16, 1.249999999999999112 ) ) ;
#73 = CARTESIAN_POINT ( 'NONE',  ( 1.326762908760390423E-13, 8.998558695971030697E-33, 38.00000000000000000 ) ) ;
#74 = CARTESIAN_POINT ( 'NONE',  ( 0.0000000000000000000, 0.0000000000000000000, 0.0000000000000000000 ) ) ;
#75 = CARTESIAN_POINT ( 'NONE',  ( 0.0000000000000000000, 0.0000000000000000000, 0.0000000000000000000 ) ) ;
#76 = PERSON_AND_ORGANIZATION_ROLE ( 'creator' ) ;
#77 = ADVANCED_FACE ( 'NONE', ( #106, #195 ), #128, .T. ) ;
#78 = APPLICATION_PROTOCOL_DEFINITION ( 'international standard', 'config_control_design', 1994, #120 ) ;
#79 = CIRCLE ( 'NONE', #21, 0.2500000000000000000 ) ;
#80 = SHAPE_DEFINITION_REPRESENTATION ( #66, #11 ) ;
#81 = MANIFOLD_SOLID_BREP ( 'Corps-Déplacer/Copier1[2]', #140 ) ;
#82 = ORIENTED_EDGE ( 'NONE', *, *, #60, .T. ) ;
#83 = EDGE_LOOP ( 'NONE', ( #212 ) ) ;
#84 = MANIFOLD_SOLID_BREP ( 'Corps-Déplacer/Copier1[1]', #201 ) ;
#85 = VERTEX_POINT ( 'NONE', #159 ) ;
#86 = APPROVAL_PERSON_ORGANIZATION ( #17, #99, #229 ) ;
#87 = DIRECTION ( 'NONE',  ( 0.0000000000000000000, -1.000000000000000000, 0.0000000000000000000 ) ) ;
#88 = CARTESIAN_POINT ( 'NONE',  ( 4.364351673553913539E-15, -0.2500000000000001110, 1.249999999999999112 ) ) ;
#89 = EDGE_LOOP ( 'NONE', ( #233 ) ) ;
#90 = DIRECTION ( 'NONE',  ( -4.275831445896958607E-31, -1.000000000000000000, -1.224646799147353207E-16 ) ) ;
#91 = DIRECTION ( 'NONE',  ( 0.0000000000000000000, -1.000000000000000000, 0.0000000000000000000 ) ) ;
#92 = AXIS2_PLACEMENT_3D ( 'NONE', #16, #183, #91 ) ;
#93 = EDGE_CURVE ( 'NONE', #147, #147, #67, .T. ) ;
#94 = COORDINATED_UNIVERSAL_TIME_OFFSET ( 1, 0, .AHEAD. ) ;
#95 = APPROVAL_DATE_TIME ( #137, #232 ) ;
#96 = APPROVAL_DATE_TIME ( #185, #32 ) ;
#97 = CALENDAR_DATE ( 2021, 16, 11 ) ;
#98 = LOCAL_TIME ( 15, 59, 4.000000000000000000, #153 ) ;
#99 = APPROVAL ( #152, 'UNSPECIFIED' ) ;
#100 = ORIENTED_EDGE ( 'NONE', *, *, #214, .T. ) ;
#101 = FACE_BOUND ( 'NONE', #14, .T. ) ;
#102 = EDGE_LOOP ( 'NONE', ( #121 ) ) ;
#103 = DIRECTION ( 'NONE',  ( 0.0000000000000000000, -1.000000000000000000, 0.0000000000000000000 ) ) ;
#104 = CC_DESIGN_APPROVAL ( #99, ( #47 ) ) ;
#105 = CARTESIAN_POINT ( 'NONE',  ( 6.171675405779171497E-15, -2.155180254596105633E-16, 1.767638090205028156 ) ) ;
#106 = FACE_OUTER_BOUND ( 'NONE', #83, .T. ) ;
#107 = FACE_OUTER_BOUND ( 'NONE', #8, .T. ) ;
#108 = AXIS2_PLACEMENT_3D ( 'NONE', #74, #70, #215 ) ;
#109 = CARTESIAN_POINT ( 'NONE',  ( 1.326762908760390423E-13, -4.653657836759941941E-15, 38.00000000000000000 ) ) ;
#110 = CARTESIAN_POINT ( 'NONE',  ( 4.364351673553915905E-15, -1.807003620809179069E-16, 1.249999999999999778 ) ) ;
#111 = DIRECTION ( 'NONE',  ( 3.491481338843133355E-15, -1.224646799147353207E-16, 1.000000000000000000 ) ) ;
#112 = ADVANCED_FACE ( 'NONE', ( #33 ), #234, .T. ) ;
#113 = PERSON_AND_ORGANIZATION_ROLE ( 'design_owner' ) ;
#114 = PRODUCT ( '964117', '964117', '', ( #188 ) ) ;
#115 = PERSON_AND_ORGANIZATION_ROLE ( 'design_supplier' ) ;
#116 = APPROVAL_STATUS ( 'not_yet_approved' ) ;
#117 = CIRCLE ( 'NONE', #157, 0.2499999999999999445 ) ;
#118 = LOCAL_TIME ( 15, 59, 4.000000000000000000, #189 ) ;
#119 = CC_DESIGN_PERSON_AND_ORGANIZATION_ASSIGNMENT ( #134, #76, ( #227 ) ) ;
#120 = APPLICATION_CONTEXT ( 'configuration controlled 3d designs of mechanical parts and assemblies' ) ;
#121 = ORIENTED_EDGE ( 'NONE', *, *, #26, .F. ) ;
#122 = FACE_OUTER_BOUND ( 'NONE', #68, .T. ) ;
#123 = EDGE_CURVE ( 'NONE', #177, #177, #175, .T. ) ;
#124 = CARTESIAN_POINT ( 'NONE',  ( 4.364351673553915905E-15, -1.807003620809179069E-16, 1.249999999999999778 ) ) ;
#125 = VERTEX_POINT ( 'NONE', #211 ) ;
#126 = CARTESIAN_POINT ( 'NONE',  ( 1.316288464743861212E-13, 1.499999999999989120, 37.69999999999999574 ) ) ;
#127 = DIRECTION ( 'NONE',  ( -4.256963957985708889E-31, -1.000000000000000000, -1.219242935835426903E-16 ) ) ;
#128 = CYLINDRICAL_SURFACE ( 'NONE', #108, 1.499999999999991562 ) ;
#129 = PLANE ( 'NONE',  #186 ) ;
#130 =( GEOMETRIC_REPRESENTATION_CONTEXT ( 3 ) GLOBAL_UNCERTAINTY_ASSIGNED_CONTEXT ( ( #231 ) ) GLOBAL_UNIT_ASSIGNED_CONTEXT ( ( #10, #194, #174 ) ) REPRESENTATION_CONTEXT ( 'NONE', 'WORKASPACE' ) );
#131 = DATE_AND_TIME ( #154, #208 ) ;
#132 = CARTESIAN_POINT ( 'NONE',  ( -1.282754905350004587E-30, 4.499298539707956128E-32, -3.673956068672651857E-16 ) ) ;
#133 = AXIS2_PLACEMENT_3D ( 'NONE', #170, #171, #228 ) ;
#134 = PERSON_AND_ORGANIZATION ( #156, #39 ) ;
#135 = DATE_AND_TIME ( #168, #118 ) ;
#136 = APPROVAL_ROLE ( '' ) ;
#137 = DATE_AND_TIME ( #97, #98 ) ;
#138 = AXIS2_PLACEMENT_3D ( 'NONE', #181, #164, #239 ) ;
#139 = AXIS2_PLACEMENT_3D ( 'NONE', #36, #9, #142 ) ;
#140 = CLOSED_SHELL ( 'NONE', ( #112, #20, #53 ) ) ;
#141 = EDGE_LOOP ( 'NONE', ( #82 ) ) ;
#142 = DIRECTION ( 'NONE',  ( -4.319447003640437456E-31, -1.000000000000000000, -1.219242935835426903E-16 ) ) ;
#143 = CARTESIAN_POINT ( 'NONE',  ( 1.326762908760390423E-13, -4.653657836759941941E-15, 38.00000000000000000 ) ) ;
#144 = AXIS2_PLACEMENT_3D ( 'NONE', #132, #111, #90 ) ;
#145 = ADVANCED_FACE ( 'NONE', ( #51, #122 ), #2, .F. ) ;
#146 = EDGE_LOOP ( 'NONE', ( #44 ) ) ;
#147 = VERTEX_POINT ( 'NONE', #238 ) ;
#148 = DIRECTION ( 'NONE',  ( 3.491481338843133355E-15, -1.224646799147353207E-16, 1.000000000000000000 ) ) ;
#149 = DIRECTION ( 'NONE',  ( -3.491481338843133355E-15, 1.224646799147353207E-16, -1.000000000000000000 ) ) ;
#150 = PERSON_AND_ORGANIZATION ( #156, #39 ) ;
#151 = FACE_OUTER_BOUND ( 'NONE', #31, .T. ) ;
#152 = APPROVAL_STATUS ( 'not_yet_approved' ) ;
#153 = COORDINATED_UNIVERSAL_TIME_OFFSET ( 1, 0, .AHEAD. ) ;
#154 = CALENDAR_DATE ( 2021, 16, 11 ) ;
#155 = AXIS2_PLACEMENT_3D ( 'NONE', #72, #161, #103 ) ;
#156 = PERSON ( 'UNSPECIFIED', 'UNSPECIFIED', 'UNSPECIFIED', ('UNSPECIFIED'), ('UNSPECIFIED'), ('UNSPECIFIED') ) ;
#157 = AXIS2_PLACEMENT_3D ( 'NONE', #220, #18, #54 ) ;
#158 = AXIS2_PLACEMENT_3D ( 'NONE', #198, #12, #49 ) ;
#159 = CARTESIAN_POINT ( 'NONE',  ( -3.419732725483833462E-30, -0.2500000000000000000, -9.794503803984034527E-16 ) ) ;
#160 = SECURITY_CLASSIFICATION ( '', '', #206 ) ;
#161 = DIRECTION ( 'NONE',  ( 3.491481338843133355E-15, -1.219242935835426903E-16, 1.000000000000000000 ) ) ;
#162 = CC_DESIGN_PERSON_AND_ORGANIZATION_ASSIGNMENT ( #61, #3, ( #47 ) ) ;
#163 = ORIENTED_EDGE ( 'NONE', *, *, #123, .T. ) ;
#164 = DIRECTION ( 'NONE',  ( -3.491481338843133355E-15, 1.219242935835426903E-16, -1.000000000000000000 ) ) ;
#165 = DIRECTION ( 'NONE',  ( -3.491481338843133355E-15, 1.224646799147353207E-16, -1.000000000000000000 ) ) ;
#166 = FACE_OUTER_BOUND ( 'NONE', #27, .T. ) ;
#167 = DATE_TIME_ROLE ( 'classification_date' ) ;
#168 = CALENDAR_DATE ( 2021, 16, 11 ) ;
#169 = LOCAL_TIME ( 15, 59, 4.000000000000000000, #1 ) ;
#170 = CARTESIAN_POINT ( 'NONE',  ( 0.0000000000000000000, 0.0000000000000000000, 0.0000000000000000000 ) ) ;
#171 = DIRECTION ( 'NONE',  ( 0.0000000000000000000, 0.0000000000000000000, 1.000000000000000000 ) ) ;
#172 = CC_DESIGN_APPROVAL ( #32, ( #160 ) ) ;
#173 = ORIENTED_EDGE ( 'NONE', *, *, #57, .T. ) ;
#174 =( NAMED_UNIT ( * ) SI_UNIT ( $, .STERADIAN. ) SOLID_ANGLE_UNIT ( ) );
#175 = CIRCLE ( 'NONE', #155, 0.2499999999999999445 ) ;
#176 = FACE_OUTER_BOUND ( 'NONE', #89, .T. ) ;
#177 = VERTEX_POINT ( 'NONE', #217 ) ;
#178 = ORIENTED_EDGE ( 'NONE', *, *, #60, .F. ) ;
#179 = DIRECTION ( 'NONE',  ( 3.491481338843133355E-15, -1.219242935835426903E-16, 1.000000000000000000 ) ) ;
#180 = CARTESIAN_POINT ( 'NONE',  ( 6.171675405779171497E-15, -0.3181483474218606555, 1.767638090205028156 ) ) ;
#181 = CARTESIAN_POINT ( 'NONE',  ( 2.157165833843263225E-14, -7.532932154265492915E-16, 6.178368504635966652 ) ) ;
#182 = DIRECTION ( 'NONE',  ( 0.0000000000000000000, 1.000000000000000000, 0.0000000000000000000 ) ) ;
#183 = DIRECTION ( 'NONE',  ( 3.491481338843133355E-15, -1.219242935835426903E-16, 1.000000000000000000 ) ) ;
#184 = FACE_OUTER_BOUND ( 'NONE', #141, .T. ) ;
#185 = DATE_AND_TIME ( #221, #169 ) ;
#186 = AXIS2_PLACEMENT_3D ( 'NONE', #110, #15, #241 ) ;
#187 = PRODUCT_RELATED_PRODUCT_CATEGORY ( 'detail', '', ( #114 ) ) ;
#188 = MECHANICAL_CONTEXT ( 'NONE', #120, 'mechanical' ) ;
#189 = COORDINATED_UNIVERSAL_TIME_OFFSET ( 1, 0, .AHEAD. ) ;
#190 = AXIS2_PLACEMENT_3D ( 'NONE', #143, #219, #46 ) ;
#191 = CC_DESIGN_APPROVAL ( #232, ( #227 ) ) ;
#192 = ORIENTED_EDGE ( 'NONE', *, *, #214, .F. ) ;
#193 = ORIENTED_EDGE ( 'NONE', *, *, #123, .F. ) ;
#194 =( NAMED_UNIT ( * ) PLANE_ANGLE_UNIT ( ) SI_UNIT ( $, .RADIAN. ) );
#195 = FACE_OUTER_BOUND ( 'NONE', #28, .T. ) ;
#196 = ORIENTED_EDGE ( 'NONE', *, *, #57, .F. ) ;
#197 = APPLICATION_CONTEXT ( 'configuration controlled 3d designs of mechanical parts and assemblies' ) ;
#198 = CARTESIAN_POINT ( 'NONE',  ( 1.316288464743861212E-13, -4.616918432785521081E-15, 37.69999999999999574 ) ) ;
#199 = VERTEX_POINT ( 'NONE', #126 ) ;
#200 = DIRECTION ( 'NONE',  ( 3.491481338843133355E-15, -1.219242935835426903E-16, 1.000000000000000000 ) ) ;
#201 = CLOSED_SHELL ( 'NONE', ( #77, #65, #6, #7, #145, #43 ) ) ;
#202 = APPROVAL_ROLE ( '' ) ;
#203 = FACE_BOUND ( 'NONE', #45, .T. ) ;
#204 = DATE_AND_TIME ( #225, #25 ) ;
#205 = CC_DESIGN_PERSON_AND_ORGANIZATION_ASSIGNMENT ( #150, #59, ( #160 ) ) ;
#206 = SECURITY_CLASSIFICATION_LEVEL ( 'unclassified' ) ;
#207 = PERSON_AND_ORGANIZATION ( #156, #39 ) ;
#208 = LOCAL_TIME ( 15, 59, 4.000000000000000000, #62 ) ;
#209 = CC_DESIGN_PERSON_AND_ORGANIZATION_ASSIGNMENT ( #243, #113, ( #114 ) ) ;
#210 = AXIS2_PLACEMENT_3D ( 'NONE', #109, #165, #182 ) ;
#211 = CARTESIAN_POINT ( 'NONE',  ( 2.157165833843263225E-14, -1.499999999999992228, 6.178368504635966652 ) ) ;
#212 = ORIENTED_EDGE ( 'NONE', *, *, #235, .T. ) ;
#213 = VERTEX_POINT ( 'NONE', #88 ) ;
#214 = EDGE_CURVE ( 'NONE', #236, #236, #64, .T. ) ;
#215 = DIRECTION ( 'NONE',  ( 4.275831445896958607E-31, 1.000000000000000000, 1.224646799147353207E-16 ) ) ;
#216 = PLANE ( 'NONE',  #223 ) ;
#217 = CARTESIAN_POINT ( 'NONE',  ( 4.364351673553913539E-15, -0.2500000000000001110, 1.249999999999999112 ) ) ;
#218 = CARTESIAN_POINT ( 'NONE',  ( -3.313308626534190981E-30, 1.157024123887460155E-31, -9.489693070025177309E-16 ) ) ;
#219 = DIRECTION ( 'NONE',  ( -3.491481338843133355E-15, 1.224646799147353207E-16, -1.000000000000000000 ) ) ;
#220 = CARTESIAN_POINT ( 'NONE',  ( 4.364351673553913539E-15, -1.524053669794282642E-16, 1.249999999999999112 ) ) ;
#221 = CALENDAR_DATE ( 2021, 16, 11 ) ;
#222 = AXIS2_PLACEMENT_3D ( 'NONE', #124, #148, #240 ) ;
#223 = AXIS2_PLACEMENT_3D ( 'NONE', #73, #149, #56 ) ;
#224 = CYLINDRICAL_SURFACE ( 'NONE', #230, 0.2500000000000000000 ) ;
#225 = CALENDAR_DATE ( 2021, 16, 11 ) ;
#226 = CC_DESIGN_DATE_AND_TIME_ASSIGNMENT ( #135, #167, ( #160 ) ) ;
#227 = PRODUCT_DEFINITION_FORMATION_WITH_SPECIFIED_SOURCE ( 'ANY', '', #114, .NOT_KNOWN. ) ;
#228 = DIRECTION ( 'NONE',  ( 1.000000000000000000, 0.0000000000000000000, 0.0000000000000000000 ) ) ;
#229 = APPROVAL_ROLE ( '' ) ;
#230 = AXIS2_PLACEMENT_3D ( 'NONE', #75, #37, #127 ) ;
#231 = UNCERTAINTY_MEASURE_WITH_UNIT (LENGTH_MEASURE( 1.000000000000000082E-05 ), #10, 'distance_accuracy_value', 'NONE');
#232 = APPROVAL ( #116, 'UNSPECIFIED' ) ;
#233 = ORIENTED_EDGE ( 'NONE', *, *, #93, .F. ) ;
#234 = PLANE ( 'NONE',  #222 ) ;
#235 = EDGE_CURVE ( 'NONE', #199, #199, #29, .T. ) ;
#236 = VERTEX_POINT ( 'NONE', #180 ) ;
#237 = EDGE_LOOP ( 'NONE', ( #50 ) ) ;
#238 = CARTESIAN_POINT ( 'NONE',  ( 1.326762908760390423E-13, 1.199999999999989297, 38.00000000000000000 ) ) ;
#239 = DIRECTION ( 'NONE',  ( 0.0000000000000000000, -1.000000000000000000, 0.0000000000000000000 ) ) ;
#240 = DIRECTION ( 'NONE',  ( -4.275831445896958607E-31, -1.000000000000000000, -1.224646799147353207E-16 ) ) ;
#241 = DIRECTION ( 'NONE',  ( -4.275831445896958607E-31, -1.000000000000000000, -1.224646799147353207E-16 ) ) ;
#242 = AXIS2_PLACEMENT_3D ( 'NONE', #105, #179, #87 ) ;
#243 = PERSON_AND_ORGANIZATION ( #156, #39 ) ;
ENDSEC;
END-ISO-10303-21;
