ISO-10303-21;
HEADER;
FILE_DESCRIPTION (( 'STEP AP203' ),
    '1' );
FILE_NAME ('964116.step',
    '2021-11-16T14:59:03',
    ( '' ),
    ( '' ),
    'SwSTEP 2.0',
    'SolidWorks 2019',
    '' );
FILE_SCHEMA (( 'CONFIG_CONTROL_DESIGN' ));
ENDSEC;

DATA;
#1 = DATE_AND_TIME ( #209, #147 ) ;
#2 = PERSON_AND_ORGANIZATION ( #68, #112 ) ;
#3 = ORIENTED_EDGE ( 'NONE', *, *, #43, .F. ) ;
#4 = ORIENTED_EDGE ( 'NONE', *, *, #179, .T. ) ;
#5 = APPROVAL ( #86, 'UNSPECIFIED' ) ;
#6 = EDGE_LOOP ( 'NONE', ( #57 ) ) ;
#7 = ADVANCED_FACE ( 'NONE', ( #178 ), #96, .F. ) ;
#8 = APPROVAL_PERSON_ORGANIZATION ( #33, #47, #191 ) ;
#9 = PLANE ( 'NONE',  #92 ) ;
#10 = DIRECTION ( 'NONE',  ( 4.275831445896958607E-31, 1.000000000000000000, 1.224646799147353207E-16 ) ) ;
#11 = DIRECTION ( 'NONE',  ( 0.0000000000000000000, -1.000000000000000000, 0.0000000000000000000 ) ) ;
#12 = FACE_BOUND ( 'NONE', #158, .T. ) ;
#13 = CYLINDRICAL_SURFACE ( 'NONE', #103, 0.2250000000000000056 ) ;
#14 = FACE_OUTER_BOUND ( 'NONE', #41, .T. ) ;
#15 = CARTESIAN_POINT ( 'NONE',  ( -3.398447905693904685E-30, -0.2249999999999999500, -9.733541657192261506E-16 ) ) ;
#16 = CALENDAR_DATE ( 2021, 16, 11 ) ;
#17 = AXIS2_PLACEMENT_3D ( 'NONE', #30, #27, #235 ) ;
#18 = DIRECTION ( 'NONE',  ( 0.0000000000000000000, 0.0000000000000000000, 1.000000000000000000 ) ) ;
#19 = PERSON_AND_ORGANIZATION ( #68, #112 ) ;
#20 = LOCAL_TIME ( 15, 59, 3.000000000000000000, #145 ) ;
#21 = UNCERTAINTY_MEASURE_WITH_UNIT (LENGTH_MEASURE( 1.000000000000000082E-05 ), #229, 'distance_accuracy_value', 'NONE');
#22 = PRODUCT_RELATED_PRODUCT_CATEGORY ( 'detail', '', ( #75 ) ) ;
#23 = FACE_OUTER_BOUND ( 'NONE', #6, .T. ) ;
#24 = CIRCLE ( 'NONE', #180, 0.2250000000000000888 ) ;
#25 = CC_DESIGN_APPROVAL ( #47, ( #151 ) ) ;
#26 = PLANE ( 'NONE',  #206 ) ;
#27 = DIRECTION ( 'NONE',  ( -3.491481338843133355E-15, 1.224646799147353207E-16, -1.000000000000000000 ) ) ;
#28 = EDGE_CURVE ( 'NONE', #152, #152, #193, .T. ) ;
#29 = AXIS2_PLACEMENT_3D ( 'NONE', #202, #105, #11 ) ;
#30 = CARTESIAN_POINT ( 'NONE',  ( 1.326762908760390423E-13, -4.653657836759941941E-15, 38.00000000000000000 ) ) ;
#31 = DATE_AND_TIME ( #52, #20 ) ;
#32 = APPROVAL_ROLE ( '' ) ;
#33 = PERSON_AND_ORGANIZATION ( #68, #112 ) ;
#34 = APPLICATION_PROTOCOL_DEFINITION ( 'international standard', 'config_control_design', 1994, #54 ) ;
#35 = CLOSED_SHELL ( 'NONE', ( #205, #39, #163, #220, #157, #212 ) ) ;
#36 = APPROVAL_PERSON_ORGANIZATION ( #131, #5, #71 ) ;
#37 = COORDINATED_UNIVERSAL_TIME_OFFSET ( 1, 0, .AHEAD. ) ;
#38 = CC_DESIGN_PERSON_AND_ORGANIZATION_ASSIGNMENT ( #2, #153, ( #151 ) ) ;
#39 = ADVANCED_FACE ( 'NONE', ( #14, #45 ), #138, .T. ) ;
#40 = EDGE_LOOP ( 'NONE', ( #135 ) ) ;
#41 = EDGE_LOOP ( 'NONE', ( #94 ) ) ;
#42 = EDGE_LOOP ( 'NONE', ( #197 ) ) ;
#43 = EDGE_CURVE ( 'NONE', #170, #170, #225, .T. ) ;
#44 = FACE_OUTER_BOUND ( 'NONE', #40, .T. ) ;
#45 = FACE_BOUND ( 'NONE', #196, .T. ) ;
#46 = CIRCLE ( 'NONE', #29, 0.2931483474218601892 ) ;
#47 = APPROVAL ( #238, 'UNSPECIFIED' ) ;
#48 = CARTESIAN_POINT ( 'NONE',  ( 1.326762908760390423E-13, 8.998558695971030697E-33, 38.00000000000000000 ) ) ;
#49 = EDGE_CURVE ( 'NONE', #228, #228, #24, .T. ) ;
#50 = CARTESIAN_POINT ( 'NONE',  ( 5.647953204952700705E-15, -0.2931483474218604113, 1.617638090205028245 ) ) ;
#51 = MECHANICAL_CONTEXT ( 'NONE', #154, 'mechanical' ) ;
#52 = CALENDAR_DATE ( 2021, 16, 11 ) ;
#53 = DIRECTION ( 'NONE',  ( 0.0000000000000000000, -1.000000000000000000, 0.0000000000000000000 ) ) ;
#54 = APPLICATION_CONTEXT ( 'configuration controlled 3d designs of mechanical parts and assemblies' ) ;
#55 = APPLICATION_PROTOCOL_DEFINITION ( 'international standard', 'config_control_design', 1994, #154 ) ;
#56 = AXIS2_PLACEMENT_3D ( 'NONE', #101, #204, #164 ) ;
#57 = ORIENTED_EDGE ( 'NONE', *, *, #28, .T. ) ;
#58 = EDGE_LOOP ( 'NONE', ( #140 ) ) ;
#59 = AXIS2_PLACEMENT_3D ( 'NONE', #188, #226, #118 ) ;
#60 = CARTESIAN_POINT ( 'NONE',  ( 0.0000000000000000000, 0.0000000000000000000, 0.0000000000000000000 ) ) ;
#61 = DIRECTION ( 'NONE',  ( 0.0000000000000000000, 1.000000000000000000, 0.0000000000000000000 ) ) ;
#62 = CARTESIAN_POINT ( 'NONE',  ( 3.840629472727446691E-15, -1.590163186312077443E-16, 1.099999999999999867 ) ) ;
#63 = DIRECTION ( 'NONE',  ( -3.491481338843133355E-15, 1.224646799147353207E-16, -1.000000000000000000 ) ) ;
#64 = CC_DESIGN_SECURITY_CLASSIFICATION ( #168, ( #151 ) ) ;
#65 = EDGE_CURVE ( 'NONE', #81, #81, #123, .T. ) ;
#66 = CARTESIAN_POINT ( 'NONE',  ( 3.440408153160375348E-14, -1.201407921178024638E-15, 9.853720582394174698 ) ) ;
#67 = CARTESIAN_POINT ( 'NONE',  ( 1.316288464743861212E-13, 1.499999999999989120, 37.69999999999999574 ) ) ;
#68 = PERSON ( 'UNSPECIFIED', 'UNSPECIFIED', 'UNSPECIFIED', ('UNSPECIFIED'), ('UNSPECIFIED'), ('UNSPECIFIED') ) ;
#69 = LOCAL_TIME ( 15, 59, 3.000000000000000000, #190 ) ;
#70 = PERSON_AND_ORGANIZATION ( #68, #112 ) ;
#71 = APPROVAL_ROLE ( '' ) ;
#72 = EDGE_LOOP ( 'NONE', ( #4 ) ) ;
#73 = CIRCLE ( 'NONE', #98, 1.499999999999991562 ) ;
#74 = DIRECTION ( 'NONE',  ( 0.0000000000000000000, 1.000000000000000000, 0.0000000000000000000 ) ) ;
#75 = PRODUCT ( '964116', '964116', '', ( #51 ) ) ;
#76 = MANIFOLD_SOLID_BREP ( 'Corps-Déplacer/Copier1[2]', #239 ) ;
#77 = MANIFOLD_SOLID_BREP ( 'Corps-Déplacer/Copier1[1]', #35 ) ;
#78 = PRODUCT_DEFINITION ( 'UNKNOWN', '', #151, #174 ) ;
#79 = DIRECTION ( 'NONE',  ( 4.275831445896958607E-31, 1.000000000000000000, 1.224646799147353207E-16 ) ) ;
#80 = CARTESIAN_POINT ( 'NONE',  ( 0.0000000000000000000, 0.0000000000000000000, 0.0000000000000000000 ) ) ;
#81 = VERTEX_POINT ( 'NONE', #224 ) ;
#82 = DIRECTION ( 'NONE',  ( 3.491481338843133355E-15, -1.224646799147353207E-16, 1.000000000000000000 ) ) ;
#83 = COORDINATED_UNIVERSAL_TIME_OFFSET ( 1, 0, .AHEAD. ) ;
#84 = AXIS2_PLACEMENT_3D ( 'NONE', #60, #185, #79 ) ;
#85 = DATE_AND_TIME ( #16, #69 ) ;
#86 = APPROVAL_STATUS ( 'not_yet_approved' ) ;
#87 = APPROVAL_STATUS ( 'not_yet_approved' ) ;
#88 = DATE_TIME_ROLE ( 'classification_date' ) ;
#89 = CC_DESIGN_PERSON_AND_ORGANIZATION_ASSIGNMENT ( #106, #189, ( #78 ) ) ;
#90 = CARTESIAN_POINT ( 'NONE',  ( 0.0000000000000000000, 0.0000000000000000000, 0.0000000000000000000 ) ) ;
#91 = PERSON_AND_ORGANIZATION_ROLE ( 'design_supplier' ) ;
#92 = AXIS2_PLACEMENT_3D ( 'NONE', #62, #222, #99 ) ;
#93 = CALENDAR_DATE ( 2021, 16, 11 ) ;
#94 = ORIENTED_EDGE ( 'NONE', *, *, #179, .F. ) ;
#95 = ORIENTED_EDGE ( 'NONE', *, *, #28, .F. ) ;
#96 = PLANE ( 'NONE',  #133 ) ;
#97 = DIRECTION ( 'NONE',  ( -4.256963957985708889E-31, -1.000000000000000000, -1.219242935835426656E-16 ) ) ;
#98 = AXIS2_PLACEMENT_3D ( 'NONE', #232, #161, #216 ) ;
#99 = DIRECTION ( 'NONE',  ( -4.275831445896958607E-31, -1.000000000000000000, -1.224646799147353207E-16 ) ) ;
#100 = FACE_OUTER_BOUND ( 'NONE', #72, .T. ) ;
#101 = CARTESIAN_POINT ( 'NONE',  ( -3.302666216639226592E-30, 1.153307740545998597E-31, -9.459211996629289812E-16 ) ) ;
#102 = FACE_OUTER_BOUND ( 'NONE', #58, .T. ) ;
#103 = AXIS2_PLACEMENT_3D ( 'NONE', #80, #141, #97 ) ;
#104 = CC_DESIGN_APPROVAL ( #5, ( #168 ) ) ;
#105 = DIRECTION ( 'NONE',  ( 3.491481338843133355E-15, -1.219242935835426903E-16, 1.000000000000000000 ) ) ;
#106 = PERSON_AND_ORGANIZATION ( #68, #112 ) ;
#107 = CALENDAR_DATE ( 2021, 16, 11 ) ;
#108 = ADVANCED_BREP_SHAPE_REPRESENTATION ( '964116', ( #77, #76, #194 ), #134 ) ;
#109 = CC_DESIGN_PERSON_AND_ORGANIZATION_ASSIGNMENT ( #70, #167, ( #168 ) ) ;
#110 = VERTEX_POINT ( 'NONE', #50 ) ;
#111 = APPROVAL_DATE_TIME ( #149, #5 ) ;
#112 = ORGANIZATION ( 'UNSPECIFIED', 'UNSPECIFIED', '' ) ;
#113 = SHAPE_DEFINITION_REPRESENTATION ( #150, #108 ) ;
#114 = EDGE_LOOP ( 'NONE', ( #95 ) ) ;
#115 = ORIENTED_EDGE ( 'NONE', *, *, #65, .T. ) ;
#116 = APPROVAL ( #87, 'UNSPECIFIED' ) ;
#117 = EDGE_LOOP ( 'NONE', ( #173 ) ) ;
#118 = DIRECTION ( 'NONE',  ( -4.319816725804075743E-31, -1.000000000000000000, -1.219242935835426903E-16 ) ) ;
#119 = DIRECTION ( 'NONE',  ( 3.491481338843133355E-15, -1.219242935835426903E-16, 1.000000000000000000 ) ) ;
#120 = DIRECTION ( 'NONE',  ( 3.491481338843133355E-15, -1.224646799147353207E-16, 1.000000000000000000 ) ) ;
#121 = DIRECTION ( 'NONE',  ( 0.0000000000000000000, -1.000000000000000000, 0.0000000000000000000 ) ) ;
#122 = CARTESIAN_POINT ( 'NONE',  ( 1.316288464743861212E-13, -4.616918432785521081E-15, 37.69999999999999574 ) ) ;
#123 = CIRCLE ( 'NONE', #155, 1.199999999999993738 ) ;
#124 = AXIS2_PLACEMENT_3D ( 'NONE', #217, #120, #184 ) ;
#125 =( NAMED_UNIT ( * ) SI_UNIT ( $, .STERADIAN. ) SOLID_ANGLE_UNIT ( ) );
#126 =( NAMED_UNIT ( * ) PLANE_ANGLE_UNIT ( ) SI_UNIT ( $, .RADIAN. ) );
#127 = CARTESIAN_POINT ( 'NONE',  ( 3.840629472727444324E-15, -0.2250000000000001998, 1.099999999999999201 ) ) ;
#128 = EDGE_CURVE ( 'NONE', #110, #110, #46, .T. ) ;
#129 = COORDINATED_UNIVERSAL_TIME_OFFSET ( 1, 0, .AHEAD. ) ;
#130 = CARTESIAN_POINT ( 'NONE',  ( 2.137369578136221937E-14, -1.499999999999992228, 6.121669774825195809 ) ) ;
#131 = PERSON_AND_ORGANIZATION ( #68, #112 ) ;
#132 = ADVANCED_FACE ( 'NONE', ( #23, #160 ), #13, .T. ) ;
#133 = AXIS2_PLACEMENT_3D ( 'NONE', #198, #82, #146 ) ;
#134 =( GEOMETRIC_REPRESENTATION_CONTEXT ( 3 ) GLOBAL_UNCERTAINTY_ASSIGNED_CONTEXT ( ( #21 ) ) GLOBAL_UNIT_ASSIGNED_CONTEXT ( ( #229, #126, #125 ) ) REPRESENTATION_CONTEXT ( 'NONE', 'WORKASPACE' ) );
#135 = ORIENTED_EDGE ( 'NONE', *, *, #49, .F. ) ;
#136 = CC_DESIGN_PERSON_AND_ORGANIZATION_ASSIGNMENT ( #148, #211, ( #75 ) ) ;
#137 = EDGE_LOOP ( 'NONE', ( #156 ) ) ;
#138 = CONICAL_SURFACE ( 'NONE', #17, 1.199999999999993738, 0.7853981633974453924 ) ;
#139 = LOCAL_TIME ( 15, 59, 3.000000000000000000, #83 ) ;
#140 = ORIENTED_EDGE ( 'NONE', *, *, #203, .F. ) ;
#141 = DIRECTION ( 'NONE',  ( 3.491481338843133355E-15, -1.219242935835426903E-16, 1.000000000000000000 ) ) ;
#142 = PLANE ( 'NONE',  #124 ) ;
#143 = FACE_OUTER_BOUND ( 'NONE', #213, .T. ) ;
#144 = CARTESIAN_POINT ( 'NONE',  ( 3.840629472727444324E-15, -1.341167229418968508E-16, 1.099999999999999201 ) ) ;
#145 = COORDINATED_UNIVERSAL_TIME_OFFSET ( 1, 0, .AHEAD. ) ;
#146 = DIRECTION ( 'NONE',  ( -4.275831445896958607E-31, -1.000000000000000000, -1.224646799147353207E-16 ) ) ;
#147 = LOCAL_TIME ( 15, 59, 3.000000000000000000, #37 ) ;
#148 = PERSON_AND_ORGANIZATION ( #68, #112 ) ;
#149 = DATE_AND_TIME ( #93, #215 ) ;
#150 = PRODUCT_DEFINITION_SHAPE ( 'NONE', 'NONE',  #78 ) ;
#151 = PRODUCT_DEFINITION_FORMATION_WITH_SPECIFIED_SOURCE ( 'ANY', '', #75, .NOT_KNOWN. ) ;
#152 = VERTEX_POINT ( 'NONE', #15 ) ;
#153 = PERSON_AND_ORGANIZATION_ROLE ( 'creator' ) ;
#154 = APPLICATION_CONTEXT ( 'configuration controlled 3d designs of mechanical parts and assemblies' ) ;
#155 = AXIS2_PLACEMENT_3D ( 'NONE', #237, #63, #61 ) ;
#156 = ORIENTED_EDGE ( 'NONE', *, *, #128, .F. ) ;
#157 = ADVANCED_FACE ( 'NONE', ( #162, #221 ), #214, .F. ) ;
#158 = EDGE_LOOP ( 'NONE', ( #195 ) ) ;
#159 = ORIENTED_EDGE ( 'NONE', *, *, #203, .T. ) ;
#160 = FACE_OUTER_BOUND ( 'NONE', #231, .T. ) ;
#161 = DIRECTION ( 'NONE',  ( -3.491481338843133355E-15, 1.219242935835426903E-16, -1.000000000000000000 ) ) ;
#162 = FACE_OUTER_BOUND ( 'NONE', #117, .T. ) ;
#163 = ADVANCED_FACE ( 'NONE', ( #182 ), #26, .F. ) ;
#164 = DIRECTION ( 'NONE',  ( -4.256963957985710640E-31, -1.000000000000000000, -1.219242935835426903E-16 ) ) ;
#165 = DIRECTION ( 'NONE',  ( 3.491481338843133355E-15, -1.219242935835426903E-16, 1.000000000000000000 ) ) ;
#166 = DATE_AND_TIME ( #107, #139 ) ;
#167 = PERSON_AND_ORGANIZATION_ROLE ( 'classification_officer' ) ;
#168 = SECURITY_CLASSIFICATION ( '', '', #172 ) ;
#169 = APPROVAL_DATE_TIME ( #85, #47 ) ;
#170 = VERTEX_POINT ( 'NONE', #243 ) ;
#171 = DIRECTION ( 'NONE',  ( 1.000000000000000000, 0.0000000000000000000, 0.0000000000000000000 ) ) ;
#172 = SECURITY_CLASSIFICATION_LEVEL ( 'unclassified' ) ;
#173 = ORIENTED_EDGE ( 'NONE', *, *, #49, .T. ) ;
#174 = DESIGN_CONTEXT ( 'detailed design', #54, 'design' ) ;
#175 = ORIENTED_EDGE ( 'NONE', *, *, #43, .T. ) ;
#176 = CC_DESIGN_PERSON_AND_ORGANIZATION_ASSIGNMENT ( #19, #91, ( #151 ) ) ;
#177 = EDGE_LOOP ( 'NONE', ( #175 ) ) ;
#178 = FACE_OUTER_BOUND ( 'NONE', #114, .T. ) ;
#179 = EDGE_CURVE ( 'NONE', #192, #192, #181, .T. ) ;
#180 = AXIS2_PLACEMENT_3D ( 'NONE', #223, #165, #219 ) ;
#181 = CIRCLE ( 'NONE', #207, 1.499999999999993783 ) ;
#182 = FACE_OUTER_BOUND ( 'NONE', #42, .T. ) ;
#183 = DIRECTION ( 'NONE',  ( -3.491481338843133355E-15, 1.224646799147353207E-16, -1.000000000000000000 ) ) ;
#184 = DIRECTION ( 'NONE',  ( -4.275831445896958607E-31, -1.000000000000000000, -1.224646799147353207E-16 ) ) ;
#185 = DIRECTION ( 'NONE',  ( -3.491481338843133355E-15, 1.224646799147353207E-16, -1.000000000000000000 ) ) ;
#186 = CC_DESIGN_DATE_AND_TIME_ASSIGNMENT ( #166, #210, ( #78 ) ) ;
#187 = CONICAL_SURFACE ( 'NONE', #240, 2.499999999999992895, 0.2617993877991429130 ) ;
#188 = CARTESIAN_POINT ( 'NONE',  ( 3.840629472727444324E-15, 0.0000000000000000000, 1.099999999999999201 ) ) ;
#189 = PERSON_AND_ORGANIZATION_ROLE ( 'creator' ) ;
#190 = COORDINATED_UNIVERSAL_TIME_OFFSET ( 1, 0, .AHEAD. ) ;
#191 = APPROVAL_ROLE ( '' ) ;
#192 = VERTEX_POINT ( 'NONE', #67 ) ;
#193 = CIRCLE ( 'NONE', #56, 0.2249999999999999500 ) ;
#194 = AXIS2_PLACEMENT_3D ( 'NONE', #90, #18, #171 ) ;
#195 = ORIENTED_EDGE ( 'NONE', *, *, #128, .T. ) ;
#196 = EDGE_LOOP ( 'NONE', ( #115 ) ) ;
#197 = ORIENTED_EDGE ( 'NONE', *, *, #65, .F. ) ;
#198 = CARTESIAN_POINT ( 'NONE',  ( -1.282754905350004587E-30, 4.499298539707956128E-32, -3.673956068672651857E-16 ) ) ;
#199 = AXIS2_PLACEMENT_3D ( 'NONE', #144, #119, #121 ) ;
#200 = APPROVAL_PERSON_ORGANIZATION ( #236, #116, #32 ) ;
#201 = DIRECTION ( 'NONE',  ( -3.491481338843133355E-15, 1.224646799147353207E-16, -1.000000000000000000 ) ) ;
#202 = CARTESIAN_POINT ( 'NONE',  ( 5.647953204952700705E-15, -1.972293814220791745E-16, 1.617638090205028245 ) ) ;
#203 = EDGE_CURVE ( 'NONE', #241, #241, #73, .T. ) ;
#204 = DIRECTION ( 'NONE',  ( 3.491481338843133355E-15, -1.219242935835426903E-16, 1.000000000000000000 ) ) ;
#205 = ADVANCED_FACE ( 'NONE', ( #100, #102 ), #234, .T. ) ;
#206 = AXIS2_PLACEMENT_3D ( 'NONE', #48, #183, #10 ) ;
#207 = AXIS2_PLACEMENT_3D ( 'NONE', #122, #201, #74 ) ;
#208 = APPROVAL_DATE_TIME ( #31, #116 ) ;
#209 = CALENDAR_DATE ( 2021, 16, 11 ) ;
#210 = DATE_TIME_ROLE ( 'creation_date' ) ;
#211 = PERSON_AND_ORGANIZATION_ROLE ( 'design_owner' ) ;
#212 = ADVANCED_FACE ( 'NONE', ( #44 ), #9, .F. ) ;
#213 = EDGE_LOOP ( 'NONE', ( #159 ) ) ;
#214 = TOROIDAL_SURFACE ( 'NONE', #59, 2.225000000000000089, 2.000000000000000000 ) ;
#215 = LOCAL_TIME ( 15, 59, 3.000000000000000000, #129 ) ;
#216 = DIRECTION ( 'NONE',  ( 0.0000000000000000000, -1.000000000000000000, 0.0000000000000000000 ) ) ;
#217 = CARTESIAN_POINT ( 'NONE',  ( 3.840629472727446691E-15, -1.590163186312077443E-16, 1.099999999999999867 ) ) ;
#218 = ADVANCED_FACE ( 'NONE', ( #233 ), #142, .T. ) ;
#219 = DIRECTION ( 'NONE',  ( 0.0000000000000000000, -1.000000000000000000, 0.0000000000000000000 ) ) ;
#220 = ADVANCED_FACE ( 'NONE', ( #12, #143 ), #187, .T. ) ;
#221 = FACE_OUTER_BOUND ( 'NONE', #137, .T. ) ;
#222 = DIRECTION ( 'NONE',  ( 3.491481338843133355E-15, -1.224646799147353207E-16, 1.000000000000000000 ) ) ;
#223 = CARTESIAN_POINT ( 'NONE',  ( 3.840629472727444324E-15, -1.341167229418968508E-16, 1.099999999999999201 ) ) ;
#224 = CARTESIAN_POINT ( 'NONE',  ( 1.326762908760390423E-13, 1.199999999999989297, 38.00000000000000000 ) ) ;
#225 = CIRCLE ( 'NONE', #199, 0.2250000000000000888 ) ;
#226 = DIRECTION ( 'NONE',  ( 3.491481338843133355E-15, -1.219242935835426903E-16, 1.000000000000000000 ) ) ;
#227 = DIRECTION ( 'NONE',  ( 3.491481338843133355E-15, -1.219242935835426903E-16, 1.000000000000000000 ) ) ;
#228 = VERTEX_POINT ( 'NONE', #127 ) ;
#229 =( LENGTH_UNIT ( ) NAMED_UNIT ( * ) SI_UNIT ( .MILLI., .METRE. ) );
#230 = CC_DESIGN_APPROVAL ( #116, ( #78 ) ) ;
#231 = EDGE_LOOP ( 'NONE', ( #3 ) ) ;
#232 = CARTESIAN_POINT ( 'NONE',  ( 2.137369578136221937E-14, -7.463802628472869057E-16, 6.121669774825195809 ) ) ;
#233 = FACE_OUTER_BOUND ( 'NONE', #177, .T. ) ;
#234 = CYLINDRICAL_SURFACE ( 'NONE', #84, 1.499999999999991562 ) ;
#235 = DIRECTION ( 'NONE',  ( 0.0000000000000000000, 1.000000000000000000, 0.0000000000000000000 ) ) ;
#236 = PERSON_AND_ORGANIZATION ( #68, #112 ) ;
#237 = CARTESIAN_POINT ( 'NONE',  ( 1.326762908760390423E-13, -4.653657836759941941E-15, 38.00000000000000000 ) ) ;
#238 = APPROVAL_STATUS ( 'not_yet_approved' ) ;
#239 = CLOSED_SHELL ( 'NONE', ( #218, #132, #7 ) ) ;
#240 = AXIS2_PLACEMENT_3D ( 'NONE', #66, #227, #53 ) ;
#241 = VERTEX_POINT ( 'NONE', #130 ) ;
#242 = CC_DESIGN_DATE_AND_TIME_ASSIGNMENT ( #1, #88, ( #168 ) ) ;
#243 = CARTESIAN_POINT ( 'NONE',  ( 3.840629472727444324E-15, -0.2250000000000001998, 1.099999999999999201 ) ) ;
ENDSEC;
END-ISO-10303-21;
