ISO-10303-21;
HEADER;
FILE_DESCRIPTION (( 'STEP AP203' ),
    '1' );
FILE_NAME ('964115.step',
    '2021-11-16T14:59:02',
    ( '' ),
    ( '' ),
    'SwSTEP 2.0',
    'SolidWorks 2019',
    '' );
FILE_SCHEMA (( 'CONFIG_CONTROL_DESIGN' ));
ENDSEC;

DATA;
#1 = CALENDAR_DATE ( 2021, 16, 11 ) ;
#2 = FACE_OUTER_BOUND ( 'NONE', #234, .T. ) ;
#3 = LOCAL_TIME ( 15, 59, 2.000000000000000000, #45 ) ;
#4 = CARTESIAN_POINT ( 'NONE',  ( 5.298805071068388947E-15, -1.850369520637249153E-16, 1.517638090205028378 ) ) ;
#5 = VERTEX_POINT ( 'NONE', #72 ) ;
#6 = COORDINATED_UNIVERSAL_TIME_OFFSET ( 1, 0, .AHEAD. ) ;
#7 = CALENDAR_DATE ( 2021, 16, 11 ) ;
#8 = ORGANIZATION ( 'UNSPECIFIED', 'UNSPECIFIED', '' ) ;
#9 = CC_DESIGN_PERSON_AND_ORGANIZATION_ASSIGNMENT ( #165, #113, ( #31 ) ) ;
#10 = EDGE_LOOP ( 'NONE', ( #138 ) ) ;
#11 = CC_DESIGN_APPROVAL ( #69, ( #28 ) ) ;
#12 = EDGE_LOOP ( 'NONE', ( #158 ) ) ;
#13 = ORIENTED_EDGE ( 'NONE', *, *, #18, .F. ) ;
#14 = CARTESIAN_POINT ( 'NONE',  ( 0.0000000000000000000, 0.0000000000000000000, 0.0000000000000000000 ) ) ;
#15 = CALENDAR_DATE ( 2021, 16, 11 ) ;
#16 = AXIS2_PLACEMENT_3D ( 'NONE', #85, #104, #178 ) ;
#17 = DIRECTION ( 'NONE',  ( -3.491481338843133355E-15, 1.224646799147353207E-16, -1.000000000000000000 ) ) ;
#18 = EDGE_CURVE ( 'NONE', #150, #150, #67, .T. ) ;
#19 = CALENDAR_DATE ( 2021, 16, 11 ) ;
#20 = DIRECTION ( 'NONE',  ( -3.491481338843133355E-15, 1.224646799147353207E-16, -1.000000000000000000 ) ) ;
#21 = APPLICATION_PROTOCOL_DEFINITION ( 'international standard', 'config_control_design', 1994, #151 ) ;
#22 = PLANE ( 'NONE',  #87 ) ;
#23 = APPROVAL_DATE_TIME ( #111, #26 ) ;
#24 = DIRECTION ( 'NONE',  ( 3.491481338843133355E-15, -1.219242935835426903E-16, 1.000000000000000000 ) ) ;
#25 = SECURITY_CLASSIFICATION_LEVEL ( 'unclassified' ) ;
#26 = APPROVAL ( #180, 'UNSPECIFIED' ) ;
#27 = UNCERTAINTY_MEASURE_WITH_UNIT (LENGTH_MEASURE( 1.000000000000000082E-05 ), #41, 'distance_accuracy_value', 'NONE');
#28 = SECURITY_CLASSIFICATION ( '', '', #25 ) ;
#29 = DATE_TIME_ROLE ( 'classification_date' ) ;
#30 = APPROVAL_PERSON_ORGANIZATION ( #129, #157, #114 ) ;
#31 = PRODUCT_DEFINITION ( 'UNKNOWN', '', #97, #188 ) ;
#32 = ORIENTED_EDGE ( 'NONE', *, *, #63, .F. ) ;
#33 = ORIENTED_EDGE ( 'NONE', *, *, #63, .T. ) ;
#34 = DIRECTION ( 'NONE',  ( -4.320190849422040846E-31, -1.000000000000000000, -1.219242935835426903E-16 ) ) ;
#35 = ADVANCED_FACE ( 'NONE', ( #166, #68 ), #197, .T. ) ;
#36 = DIRECTION ( 'NONE',  ( -4.275831445896958607E-31, -1.000000000000000000, -1.224646799147353207E-16 ) ) ;
#37 = PRODUCT_DEFINITION_SHAPE ( 'NONE', 'NONE',  #31 ) ;
#38 = PERSON_AND_ORGANIZATION ( #70, #8 ) ;
#39 = CC_DESIGN_APPROVAL ( #157, ( #31 ) ) ;
#40 = DIRECTION ( 'NONE',  ( 0.0000000000000000000, -1.000000000000000000, 0.0000000000000000000 ) ) ;
#41 =( LENGTH_UNIT ( ) NAMED_UNIT ( * ) SI_UNIT ( .MILLI., .METRE. ) );
#42 = FACE_OUTER_BOUND ( 'NONE', #119, .T. ) ;
#43 = VERTEX_POINT ( 'NONE', #123 ) ;
#44 = CARTESIAN_POINT ( 'NONE',  ( 3.438069304147548150E-14, -1.200591183277938963E-15, 9.847021852583401014 ) ) ;
#45 = COORDINATED_UNIVERSAL_TIME_OFFSET ( 1, 0, .AHEAD. ) ;
#46 = AXIS2_PLACEMENT_3D ( 'NONE', #107, #90, #170 ) ;
#47 = ADVANCED_FACE ( 'NONE', ( #42, #217 ), #205, .F. ) ;
#48 = PERSON_AND_ORGANIZATION ( #70, #8 ) ;
#49 = EDGE_LOOP ( 'NONE', ( #65 ) ) ;
#50 = AXIS2_PLACEMENT_3D ( 'NONE', #58, #128, #201 ) ;
#51 = ORIENTED_EDGE ( 'NONE', *, *, #227, .T. ) ;
#52 = EDGE_LOOP ( 'NONE', ( #64 ) ) ;
#53 = DIRECTION ( 'NONE',  ( 3.491481338843133355E-15, -1.219242935835426903E-16, 1.000000000000000000 ) ) ;
#54 = ADVANCED_FACE ( 'NONE', ( #163 ), #240, .F. ) ;
#55 = CARTESIAN_POINT ( 'NONE',  ( -1.282754905350004587E-30, 4.499298539707956128E-32, -3.673956068672651857E-16 ) ) ;
#56 = VERTEX_POINT ( 'NONE', #77 ) ;
#57 = DIRECTION ( 'NONE',  ( 3.491481338843133355E-15, -1.219242935835426903E-16, 1.000000000000000000 ) ) ;
#58 = CARTESIAN_POINT ( 'NONE',  ( 2.135030729123394739E-14, -7.455635249472011317E-16, 6.114971045014421236 ) ) ;
#59 = DIRECTION ( 'NONE',  ( 3.491481338843133355E-15, -1.224646799147353207E-16, 1.000000000000000000 ) ) ;
#60 = PERSON_AND_ORGANIZATION_ROLE ( 'creator' ) ;
#61 = CARTESIAN_POINT ( 'NONE',  ( -3.377163085903975909E-30, -0.2000000000000000944, -9.672579510400488484E-16 ) ) ;
#62 = CLOSED_SHELL ( 'NONE', ( #35, #187, #54, #164, #47, #209 ) ) ;
#63 = EDGE_CURVE ( 'NONE', #218, #218, #153, .T. ) ;
#64 = ORIENTED_EDGE ( 'NONE', *, *, #155, .F. ) ;
#65 = ORIENTED_EDGE ( 'NONE', *, *, #124, .T. ) ;
#66 = CARTESIAN_POINT ( 'NONE',  ( 3.491481338843130989E-15, -1.219242935835426163E-16, 0.9999999999999993339 ) ) ;
#67 = CIRCLE ( 'NONE', #74, 1.199999999999993738 ) ;
#68 = FACE_OUTER_BOUND ( 'NONE', #101, .T. ) ;
#69 = APPROVAL ( #98, 'UNSPECIFIED' ) ;
#70 = PERSON ( 'UNSPECIFIED', 'UNSPECIFIED', 'UNSPECIFIED', ('UNSPECIFIED'), ('UNSPECIFIED'), ('UNSPECIFIED') ) ;
#71 = CARTESIAN_POINT ( 'NONE',  ( 3.491481338843130989E-15, -1.219242935835426163E-16, 0.9999999999999993339 ) ) ;
#72 = CARTESIAN_POINT ( 'NONE',  ( 2.135030729123394739E-14, -1.499999999999992228, 6.114971045014421236 ) ) ;
#73 = DIRECTION ( 'NONE',  ( 4.275831445896958607E-31, 1.000000000000000000, 1.224646799147353207E-16 ) ) ;
#74 = AXIS2_PLACEMENT_3D ( 'NONE', #191, #20, #219 ) ;
#75 = FACE_OUTER_BOUND ( 'NONE', #231, .T. ) ;
#76 = DIRECTION ( 'NONE',  ( 0.0000000000000000000, -1.000000000000000000, 0.0000000000000000000 ) ) ;
#77 = CARTESIAN_POINT ( 'NONE',  ( 3.491481338843130989E-15, -0.2000000000000003164, 0.9999999999999993339 ) ) ;
#78 = CIRCLE ( 'NONE', #179, 0.2000000000000002054 ) ;
#79 = CC_DESIGN_DATE_AND_TIME_ASSIGNMENT ( #86, #105, ( #31 ) ) ;
#80 = COORDINATED_UNIVERSAL_TIME_OFFSET ( 1, 0, .AHEAD. ) ;
#81 = APPROVAL_PERSON_ORGANIZATION ( #223, #26, #146 ) ;
#82 = ORIENTED_EDGE ( 'NONE', *, *, #233, .T. ) ;
#83 = AXIS2_PLACEMENT_3D ( 'NONE', #125, #88, #242 ) ;
#84 = FACE_OUTER_BOUND ( 'NONE', #194, .T. ) ;
#85 = CARTESIAN_POINT ( 'NONE',  ( -3.292023806744262204E-30, 1.149591357204537257E-31, -9.428730923233404287E-16 ) ) ;
#86 = DATE_AND_TIME ( #15, #174 ) ;
#87 = AXIS2_PLACEMENT_3D ( 'NONE', #55, #122, #36 ) ;
#88 = DIRECTION ( 'NONE',  ( 3.491481338843133355E-15, -1.224646799147353207E-16, 1.000000000000000000 ) ) ;
#89 = APPLICATION_PROTOCOL_DEFINITION ( 'international standard', 'config_control_design', 1994, #186 ) ;
#90 = DIRECTION ( 'NONE',  ( -3.491481338843133355E-15, 1.224646799147353207E-16, -1.000000000000000000 ) ) ;
#91 = APPROVAL_STATUS ( 'not_yet_approved' ) ;
#92 = DIRECTION ( 'NONE',  ( 0.0000000000000000000, -1.000000000000000000, 0.0000000000000000000 ) ) ;
#93 = PERSON_AND_ORGANIZATION ( #70, #8 ) ;
#94 = LOCAL_TIME ( 15, 59, 2.000000000000000000, #6 ) ;
#95 = DIRECTION ( 'NONE',  ( 0.0000000000000000000, -1.000000000000000000, 0.0000000000000000000 ) ) ;
#96 = APPROVAL_DATE_TIME ( #134, #69 ) ;
#97 = PRODUCT_DEFINITION_FORMATION_WITH_SPECIFIED_SOURCE ( 'ANY', '', #168, .NOT_KNOWN. ) ;
#98 = APPROVAL_STATUS ( 'not_yet_approved' ) ;
#99 = AXIS2_PLACEMENT_3D ( 'NONE', #215, #53, #34 ) ;
#100 = ORIENTED_EDGE ( 'NONE', *, *, #206, .F. ) ;
#101 = EDGE_LOOP ( 'NONE', ( #100 ) ) ;
#102 = CIRCLE ( 'NONE', #16, 0.2000000000000000944 ) ;
#103 = DIRECTION ( 'NONE',  ( 4.275831445896958607E-31, 1.000000000000000000, 1.224646799147353207E-16 ) ) ;
#104 = DIRECTION ( 'NONE',  ( 3.491481338843133355E-15, -1.219242935835426903E-16, 1.000000000000000000 ) ) ;
#105 = DATE_TIME_ROLE ( 'creation_date' ) ;
#106 = CIRCLE ( 'NONE', #239, 0.2000000000000002054 ) ;
#107 = CARTESIAN_POINT ( 'NONE',  ( 1.326762908760390423E-13, -4.653657836759941941E-15, 38.00000000000000000 ) ) ;
#108 = ADVANCED_FACE ( 'NONE', ( #176, #171 ), #203, .T. ) ;
#109 =( NAMED_UNIT ( * ) PLANE_ANGLE_UNIT ( ) SI_UNIT ( $, .RADIAN. ) );
#110 = DIRECTION ( 'NONE',  ( 3.491481338843133355E-15, -1.219242935835426903E-16, 1.000000000000000000 ) ) ;
#111 = DATE_AND_TIME ( #19, #235 ) ;
#112 = FACE_BOUND ( 'NONE', #10, .T. ) ;
#113 = PERSON_AND_ORGANIZATION_ROLE ( 'creator' ) ;
#114 = APPROVAL_ROLE ( '' ) ;
#115 = CC_DESIGN_PERSON_AND_ORGANIZATION_ASSIGNMENT ( #48, #229, ( #28 ) ) ;
#116 = DATE_AND_TIME ( #7, #94 ) ;
#117 = LOCAL_TIME ( 15, 59, 2.000000000000000000, #80 ) ;
#118 = ADVANCED_FACE ( 'NONE', ( #148 ), #22, .F. ) ;
#119 = EDGE_LOOP ( 'NONE', ( #51 ) ) ;
#120 = AXIS2_PLACEMENT_3D ( 'NONE', #145, #144, #73 ) ;
#121 = CARTESIAN_POINT ( 'NONE',  ( 1.316288464743861212E-13, -4.616918432785521081E-15, 37.69999999999999574 ) ) ;
#122 = DIRECTION ( 'NONE',  ( 3.491481338843133355E-15, -1.224646799147353207E-16, 1.000000000000000000 ) ) ;
#123 = CARTESIAN_POINT ( 'NONE',  ( 5.298805071068388947E-15, -0.2681483474218604446, 1.517638090205028378 ) ) ;
#124 = EDGE_CURVE ( 'NONE', #220, #220, #102, .T. ) ;
#125 = CARTESIAN_POINT ( 'NONE',  ( 3.491481338843133355E-15, -1.445602896647343354E-16, 1.000000000000000000 ) ) ;
#126 = MECHANICAL_CONTEXT ( 'NONE', #151, 'mechanical' ) ;
#127 = CC_DESIGN_APPROVAL ( #26, ( #97 ) ) ;
#128 = DIRECTION ( 'NONE',  ( -3.491481338843133355E-15, 1.219242935835426903E-16, -1.000000000000000000 ) ) ;
#129 = PERSON_AND_ORGANIZATION ( #70, #8 ) ;
#130 = DIRECTION ( 'NONE',  ( -3.491481338843133355E-15, 1.224646799147353207E-16, -1.000000000000000000 ) ) ;
#131 = PERSON_AND_ORGANIZATION ( #70, #8 ) ;
#132 = CARTESIAN_POINT ( 'NONE',  ( 0.0000000000000000000, 0.0000000000000000000, 0.0000000000000000000 ) ) ;
#133 = SHAPE_DEFINITION_REPRESENTATION ( #37, #173 ) ;
#134 = DATE_AND_TIME ( #135, #117 ) ;
#135 = CALENDAR_DATE ( 2021, 16, 11 ) ;
#136 = CC_DESIGN_SECURITY_CLASSIFICATION ( #28, ( #97 ) ) ;
#137 =( GEOMETRIC_REPRESENTATION_CONTEXT ( 3 ) GLOBAL_UNCERTAINTY_ASSIGNED_CONTEXT ( ( #27 ) ) GLOBAL_UNIT_ASSIGNED_CONTEXT ( ( #41, #109, #181 ) ) REPRESENTATION_CONTEXT ( 'NONE', 'WORKASPACE' ) );
#138 = ORIENTED_EDGE ( 'NONE', *, *, #18, .T. ) ;
#139 = DIRECTION ( 'NONE',  ( 3.491481338843133355E-15, -1.219242935835426903E-16, 1.000000000000000000 ) ) ;
#140 = CONICAL_SURFACE ( 'NONE', #46, 1.199999999999993738, 0.7853981633974453924 ) ;
#141 = DIRECTION ( 'NONE',  ( -4.256963957985708889E-31, -1.000000000000000000, -1.219242935835426903E-16 ) ) ;
#142 = ADVANCED_FACE ( 'NONE', ( #2 ), #183, .T. ) ;
#143 = DIRECTION ( 'NONE',  ( 0.0000000000000000000, 0.0000000000000000000, 1.000000000000000000 ) ) ;
#144 = DIRECTION ( 'NONE',  ( -3.491481338843133355E-15, 1.224646799147353207E-16, -1.000000000000000000 ) ) ;
#145 = CARTESIAN_POINT ( 'NONE',  ( 0.0000000000000000000, 0.0000000000000000000, 0.0000000000000000000 ) ) ;
#146 = APPROVAL_ROLE ( '' ) ;
#147 = AXIS2_PLACEMENT_3D ( 'NONE', #14, #243, #141 ) ;
#148 = FACE_OUTER_BOUND ( 'NONE', #12, .T. ) ;
#149 = DIRECTION ( 'NONE',  ( 1.000000000000000000, 0.0000000000000000000, 0.0000000000000000000 ) ) ;
#150 = VERTEX_POINT ( 'NONE', #172 ) ;
#151 = APPLICATION_CONTEXT ( 'configuration controlled 3d designs of mechanical parts and assemblies' ) ;
#152 = PERSON_AND_ORGANIZATION_ROLE ( 'design_owner' ) ;
#153 = CIRCLE ( 'NONE', #210, 1.499999999999993783 ) ;
#154 = APPROVAL_ROLE ( '' ) ;
#155 = EDGE_CURVE ( 'NONE', #56, #56, #106, .T. ) ;
#156 = ORIENTED_EDGE ( 'NONE', *, *, #227, .F. ) ;
#157 = APPROVAL ( #91, 'UNSPECIFIED' ) ;
#158 = ORIENTED_EDGE ( 'NONE', *, *, #124, .F. ) ;
#159 = ORIENTED_EDGE ( 'NONE', *, *, #233, .F. ) ;
#160 = APPROVAL_PERSON_ORGANIZATION ( #190, #69, #154 ) ;
#161 = EDGE_LOOP ( 'NONE', ( #33 ) ) ;
#162 = PLANE ( 'NONE',  #230 ) ;
#163 = FACE_OUTER_BOUND ( 'NONE', #208, .T. ) ;
#164 = ADVANCED_FACE ( 'NONE', ( #221, #198 ), #192, .T. ) ;
#165 = PERSON_AND_ORGANIZATION ( #70, #8 ) ;
#166 = FACE_OUTER_BOUND ( 'NONE', #161, .T. ) ;
#167 = PRODUCT_RELATED_PRODUCT_CATEGORY ( 'detail', '', ( #168 ) ) ;
#168 = PRODUCT ( '964115', '964115', '', ( #126 ) ) ;
#169 = CARTESIAN_POINT ( 'NONE',  ( 3.491481338843130989E-15, -0.2000000000000003164, 0.9999999999999993339 ) ) ;
#170 = DIRECTION ( 'NONE',  ( 0.0000000000000000000, 1.000000000000000000, 0.0000000000000000000 ) ) ;
#171 = FACE_OUTER_BOUND ( 'NONE', #52, .T. ) ;
#172 = CARTESIAN_POINT ( 'NONE',  ( 1.326762908760390423E-13, 1.199999999999989297, 38.00000000000000000 ) ) ;
#173 = ADVANCED_BREP_SHAPE_REPRESENTATION ( '964115', ( #212, #211, #199 ), #137 ) ;
#174 = LOCAL_TIME ( 15, 59, 2.000000000000000000, #184 ) ;
#175 = AXIS2_PLACEMENT_3D ( 'NONE', #182, #130, #103 ) ;
#176 = FACE_OUTER_BOUND ( 'NONE', #49, .T. ) ;
#177 = CC_DESIGN_PERSON_AND_ORGANIZATION_ASSIGNMENT ( #131, #204, ( #97 ) ) ;
#178 = DIRECTION ( 'NONE',  ( -4.256963957985703634E-31, -1.000000000000000000, -1.219242935835422958E-16 ) ) ;
#179 = AXIS2_PLACEMENT_3D ( 'NONE', #66, #139, #95 ) ;
#180 = APPROVAL_STATUS ( 'not_yet_approved' ) ;
#181 =( NAMED_UNIT ( * ) SI_UNIT ( $, .STERADIAN. ) SOLID_ANGLE_UNIT ( ) );
#182 = CARTESIAN_POINT ( 'NONE',  ( 1.326762908760390423E-13, 8.998558695971030697E-33, 38.00000000000000000 ) ) ;
#183 = PLANE ( 'NONE',  #83 ) ;
#184 = COORDINATED_UNIVERSAL_TIME_OFFSET ( 1, 0, .AHEAD. ) ;
#185 = AXIS2_PLACEMENT_3D ( 'NONE', #44, #110, #40 ) ;
#186 = APPLICATION_CONTEXT ( 'configuration controlled 3d designs of mechanical parts and assemblies' ) ;
#187 = ADVANCED_FACE ( 'NONE', ( #84, #112 ), #140, .T. ) ;
#188 = DESIGN_CONTEXT ( 'detailed design', #186, 'design' ) ;
#189 = CLOSED_SHELL ( 'NONE', ( #142, #108, #118 ) ) ;
#190 = PERSON_AND_ORGANIZATION ( #70, #8 ) ;
#191 = CARTESIAN_POINT ( 'NONE',  ( 1.326762908760390423E-13, -4.653657836759941941E-15, 38.00000000000000000 ) ) ;
#192 = CONICAL_SURFACE ( 'NONE', #185, 2.499999999999992895, 0.2617993877991428575 ) ;
#193 = ORIENTED_EDGE ( 'NONE', *, *, #206, .T. ) ;
#194 = EDGE_LOOP ( 'NONE', ( #32 ) ) ;
#195 = DIRECTION ( 'NONE',  ( 0.0000000000000000000, 1.000000000000000000, 0.0000000000000000000 ) ) ;
#196 = CC_DESIGN_PERSON_AND_ORGANIZATION_ASSIGNMENT ( #38, #152, ( #168 ) ) ;
#197 = CYLINDRICAL_SURFACE ( 'NONE', #120, 1.499999999999991562 ) ;
#198 = FACE_OUTER_BOUND ( 'NONE', #213, .T. ) ;
#199 = AXIS2_PLACEMENT_3D ( 'NONE', #132, #143, #149 ) ;
#200 = VERTEX_POINT ( 'NONE', #169 ) ;
#201 = DIRECTION ( 'NONE',  ( 0.0000000000000000000, -1.000000000000000000, 0.0000000000000000000 ) ) ;
#202 = COORDINATED_UNIVERSAL_TIME_OFFSET ( 1, 0, .AHEAD. ) ;
#203 = CYLINDRICAL_SURFACE ( 'NONE', #147, 0.2000000000000001499 ) ;
#204 = PERSON_AND_ORGANIZATION_ROLE ( 'design_supplier' ) ;
#205 = TOROIDAL_SURFACE ( 'NONE', #99, 2.200000000000000178, 2.000000000000000000 ) ;
#206 = EDGE_CURVE ( 'NONE', #5, #5, #214, .T. ) ;
#207 = CC_DESIGN_DATE_AND_TIME_ASSIGNMENT ( #116, #29, ( #28 ) ) ;
#208 = EDGE_LOOP ( 'NONE', ( #13 ) ) ;
#209 = ADVANCED_FACE ( 'NONE', ( #75 ), #162, .F. ) ;
#210 = AXIS2_PLACEMENT_3D ( 'NONE', #121, #17, #195 ) ;
#211 = MANIFOLD_SOLID_BREP ( 'Corps-Déplacer/Copier1[2]', #189 ) ;
#212 = MANIFOLD_SOLID_BREP ( 'Corps-Déplacer/Copier1[1]', #62 ) ;
#213 = EDGE_LOOP ( 'NONE', ( #193 ) ) ;
#214 = CIRCLE ( 'NONE', #50, 1.499999999999991562 ) ;
#215 = CARTESIAN_POINT ( 'NONE',  ( 3.491481338843130989E-15, 0.0000000000000000000, 0.9999999999999993339 ) ) ;
#216 = CC_DESIGN_PERSON_AND_ORGANIZATION_ASSIGNMENT ( #93, #60, ( #97 ) ) ;
#217 = FACE_OUTER_BOUND ( 'NONE', #236, .T. ) ;
#218 = VERTEX_POINT ( 'NONE', #241 ) ;
#219 = DIRECTION ( 'NONE',  ( 0.0000000000000000000, 1.000000000000000000, 0.0000000000000000000 ) ) ;
#220 = VERTEX_POINT ( 'NONE', #61 ) ;
#221 = FACE_BOUND ( 'NONE', #237, .T. ) ;
#222 = AXIS2_PLACEMENT_3D ( 'NONE', #4, #24, #76 ) ;
#223 = PERSON_AND_ORGANIZATION ( #70, #8 ) ;
#224 = CARTESIAN_POINT ( 'NONE',  ( 3.491481338843133355E-15, -1.445602896647343354E-16, 1.000000000000000000 ) ) ;
#225 = DATE_AND_TIME ( #1, #3 ) ;
#226 = APPROVAL_DATE_TIME ( #225, #157 ) ;
#227 = EDGE_CURVE ( 'NONE', #200, #200, #78, .T. ) ;
#228 = CIRCLE ( 'NONE', #222, 0.2681483474218602781 ) ;
#229 = PERSON_AND_ORGANIZATION_ROLE ( 'classification_officer' ) ;
#230 = AXIS2_PLACEMENT_3D ( 'NONE', #224, #59, #238 ) ;
#231 = EDGE_LOOP ( 'NONE', ( #156 ) ) ;
#232 = ORIENTED_EDGE ( 'NONE', *, *, #155, .T. ) ;
#233 = EDGE_CURVE ( 'NONE', #43, #43, #228, .T. ) ;
#234 = EDGE_LOOP ( 'NONE', ( #232 ) ) ;
#235 = LOCAL_TIME ( 15, 59, 2.000000000000000000, #202 ) ;
#236 = EDGE_LOOP ( 'NONE', ( #159 ) ) ;
#237 = EDGE_LOOP ( 'NONE', ( #82 ) ) ;
#238 = DIRECTION ( 'NONE',  ( -4.275831445896958607E-31, -1.000000000000000000, -1.224646799147353207E-16 ) ) ;
#239 = AXIS2_PLACEMENT_3D ( 'NONE', #71, #57, #92 ) ;
#240 = PLANE ( 'NONE',  #175 ) ;
#241 = CARTESIAN_POINT ( 'NONE',  ( 1.316288464743861212E-13, 1.499999999999989120, 37.69999999999999574 ) ) ;
#242 = DIRECTION ( 'NONE',  ( -4.275831445896958607E-31, -1.000000000000000000, -1.224646799147353207E-16 ) ) ;
#243 = DIRECTION ( 'NONE',  ( 3.491481338843133355E-15, -1.219242935835426903E-16, 1.000000000000000000 ) ) ;
ENDSEC;
END-ISO-10303-21;
