ISO-10303-21;
HEADER;
FILE_DESCRIPTION (( 'STEP AP203' ),
    '1' );
FILE_NAME ('964114.step',
    '2021-11-16T14:59:02',
    ( '' ),
    ( '' ),
    'SwSTEP 2.0',
    'SolidWorks 2019',
    '' );
FILE_SCHEMA (( 'CONFIG_CONTROL_DESIGN' ));
ENDSEC;

DATA;
#1 = VERTEX_POINT ( 'NONE', #227 ) ;
#2 = ORIENTED_EDGE ( 'NONE', *, *, #242, .F. ) ;
#3 = CC_DESIGN_DATE_AND_TIME_ASSIGNMENT ( #104, #87, ( #159 ) ) ;
#4 = ORIENTED_EDGE ( 'NONE', *, *, #64, .T. ) ;
#5 = FACE_OUTER_BOUND ( 'NONE', #204, .T. ) ;
#6 = AXIS2_PLACEMENT_3D ( 'NONE', #238, #46, #160 ) ;
#7 = DIRECTION ( 'NONE',  ( 3.491481338843133355E-15, -1.219242935835426903E-16, 1.000000000000000000 ) ) ;
#8 = SECURITY_CLASSIFICATION_LEVEL ( 'unclassified' ) ;
#9 = DIRECTION ( 'NONE',  ( 3.491481338843133355E-15, -1.219242935835426903E-16, 1.000000000000000000 ) ) ;
#10 = CARTESIAN_POINT ( 'NONE',  ( 4.949656937184069301E-15, -1.728445227053704590E-16, 1.417638090205026735 ) ) ;
#11 = DIRECTION ( 'NONE',  ( -4.275831445896958607E-31, -1.000000000000000000, -1.224646799147353207E-16 ) ) ;
#12 = ADVANCED_FACE ( 'NONE', ( #71, #67 ), #42, .T. ) ;
#13 =( GEOMETRIC_REPRESENTATION_CONTEXT ( 3 ) GLOBAL_UNCERTAINTY_ASSIGNED_CONTEXT ( ( #156 ) ) GLOBAL_UNIT_ASSIGNED_CONTEXT ( ( #142, #45, #209 ) ) REPRESENTATION_CONTEXT ( 'NONE', 'WORKASPACE' ) );
#14 = DIRECTION ( 'NONE',  ( -3.491481338843133355E-15, 1.224646799147353207E-16, -1.000000000000000000 ) ) ;
#15 = CC_DESIGN_PERSON_AND_ORGANIZATION_ASSIGNMENT ( #161, #173, ( #91 ) ) ;
#16 = TOROIDAL_SURFACE ( 'NONE', #163, 2.174999999999999822, 2.000000000000000000 ) ;
#17 = PRODUCT_RELATED_PRODUCT_CATEGORY ( 'detail', '', ( #151 ) ) ;
#18 = EDGE_LOOP ( 'NONE', ( #131 ) ) ;
#19 = APPROVAL_ROLE ( '' ) ;
#20 = DIRECTION ( 'NONE',  ( -3.491481338843133355E-15, 1.219242935835426903E-16, -1.000000000000000000 ) ) ;
#21 = CC_DESIGN_APPROVAL ( #52, ( #159 ) ) ;
#22 = ORIENTED_EDGE ( 'NONE', *, *, #118, .F. ) ;
#23 = CARTESIAN_POINT ( 'NONE',  ( 3.142333204958818836E-15, 1.124819836996384995E-32, 0.8999999999999996891 ) ) ;
#24 = VERTEX_POINT ( 'NONE', #191 ) ;
#25 = FACE_OUTER_BOUND ( 'NONE', #133, .T. ) ;
#26 = COORDINATED_UNIVERSAL_TIME_OFFSET ( 1, 0, .AHEAD. ) ;
#27 = DIRECTION ( 'NONE',  ( 0.0000000000000000000, -1.000000000000000000, 0.0000000000000000000 ) ) ;
#28 = DIRECTION ( 'NONE',  ( 0.0000000000000000000, 1.000000000000000000, 0.0000000000000000000 ) ) ;
#29 = FACE_OUTER_BOUND ( 'NONE', #198, .T. ) ;
#30 = AXIS2_PLACEMENT_3D ( 'NONE', #231, #73, #140 ) ;
#31 = APPROVAL ( #60, 'UNSPECIFIED' ) ;
#32 = CARTESIAN_POINT ( 'NONE',  ( 0.0000000000000000000, 0.0000000000000000000, 0.0000000000000000000 ) ) ;
#33 = ADVANCED_FACE ( 'NONE', ( #194, #218 ), #90, .T. ) ;
#34 = EDGE_LOOP ( 'NONE', ( #154 ) ) ;
#35 = CIRCLE ( 'NONE', #129, 1.499999999999991562 ) ;
#36 = PERSON_AND_ORGANIZATION_ROLE ( 'creator' ) ;
#37 = EDGE_LOOP ( 'NONE', ( #100 ) ) ;
#38 = COORDINATED_UNIVERSAL_TIME_OFFSET ( 1, 0, .AHEAD. ) ;
#39 = CARTESIAN_POINT ( 'NONE',  ( 3.142333204958819231E-15, -0.1750000000000000167, 0.8999999999999998002 ) ) ;
#40 = CARTESIAN_POINT ( 'NONE',  ( 1.326762908760390423E-13, -4.653657836759941941E-15, 38.00000000000000000 ) ) ;
#41 = EDGE_LOOP ( 'NONE', ( #243 ) ) ;
#42 = CONICAL_SURFACE ( 'NONE', #211, 2.499999999999992895, 0.2617993877991429130 ) ;
#43 = CONICAL_SURFACE ( 'NONE', #97, 1.199999999999993738, 0.7853981633974453924 ) ;
#44 = DATE_AND_TIME ( #69, #171 ) ;
#45 =( NAMED_UNIT ( * ) PLANE_ANGLE_UNIT ( ) SI_UNIT ( $, .RADIAN. ) );
#46 = DIRECTION ( 'NONE',  ( 3.491481338843133355E-15, -1.224646799147353207E-16, 1.000000000000000000 ) ) ;
#47 = DIRECTION ( 'NONE',  ( -3.491481338843133355E-15, 1.224646799147353207E-16, -1.000000000000000000 ) ) ;
#48 = CARTESIAN_POINT ( 'NONE',  ( 2.132691880110566909E-14, -7.447467870471151605E-16, 6.108272315203644887 ) ) ;
#49 = LOCAL_TIME ( 15, 59, 2.000000000000000000, #38 ) ;
#50 = LOCAL_TIME ( 15, 59, 2.000000000000000000, #155 ) ;
#51 = ADVANCED_BREP_SHAPE_REPRESENTATION ( '964114', ( #224, #149, #153 ), #13 ) ;
#52 = APPROVAL ( #58, 'UNSPECIFIED' ) ;
#53 = APPROVAL_DATE_TIME ( #188, #52 ) ;
#54 = EDGE_LOOP ( 'NONE', ( #202 ) ) ;
#55 = AXIS2_PLACEMENT_3D ( 'NONE', #220, #14, #77 ) ;
#56 = EDGE_LOOP ( 'NONE', ( #99 ) ) ;
#57 = APPLICATION_CONTEXT ( 'configuration controlled 3d designs of mechanical parts and assemblies' ) ;
#58 = APPROVAL_STATUS ( 'not_yet_approved' ) ;
#59 = APPROVAL_STATUS ( 'not_yet_approved' ) ;
#60 = APPROVAL_STATUS ( 'not_yet_approved' ) ;
#61 = CARTESIAN_POINT ( 'NONE',  ( 1.316288464743861212E-13, 1.499999999999989120, 37.69999999999999574 ) ) ;
#62 = AXIS2_PLACEMENT_3D ( 'NONE', #88, #9, #158 ) ;
#63 = CIRCLE ( 'NONE', #74, 1.499999999999993783 ) ;
#64 = EDGE_CURVE ( 'NONE', #169, #169, #216, .T. ) ;
#65 = DIRECTION ( 'NONE',  ( 3.491481338843133355E-15, -1.219242935835426903E-16, 1.000000000000000000 ) ) ;
#66 = DATE_AND_TIME ( #179, #136 ) ;
#67 = FACE_OUTER_BOUND ( 'NONE', #119, .T. ) ;
#68 = CC_DESIGN_APPROVAL ( #31, ( #225 ) ) ;
#69 = CALENDAR_DATE ( 2021, 16, 11 ) ;
#70 = CARTESIAN_POINT ( 'NONE',  ( 1.326762908760390423E-13, 1.199999999999989297, 38.00000000000000000 ) ) ;
#71 = FACE_BOUND ( 'NONE', #56, .T. ) ;
#72 = AXIS2_PLACEMENT_3D ( 'NONE', #215, #47, #196 ) ;
#73 = DIRECTION ( 'NONE',  ( 3.491481338843133355E-15, -1.224646799147353207E-16, 1.000000000000000000 ) ) ;
#74 = AXIS2_PLACEMENT_3D ( 'NONE', #235, #197, #28 ) ;
#75 = DIRECTION ( 'NONE',  ( 0.0000000000000000000, 1.000000000000000000, 0.0000000000000000000 ) ) ;
#76 = EDGE_CURVE ( 'NONE', #1, #1, #203, .T. ) ;
#77 = DIRECTION ( 'NONE',  ( 4.275831445896958607E-31, 1.000000000000000000, 1.224646799147353207E-16 ) ) ;
#78 = CARTESIAN_POINT ( 'NONE',  ( 0.0000000000000000000, 0.0000000000000000000, 0.0000000000000000000 ) ) ;
#79 = PERSON_AND_ORGANIZATION_ROLE ( 'design_owner' ) ;
#80 = ORIENTED_EDGE ( 'NONE', *, *, #110, .T. ) ;
#81 = DATE_TIME_ROLE ( 'classification_date' ) ;
#82 = VERTEX_POINT ( 'NONE', #232 ) ;
#83 = PERSON_AND_ORGANIZATION ( #185, #143 ) ;
#84 = CARTESIAN_POINT ( 'NONE',  ( 3.142333204958818442E-15, 0.0000000000000000000, 0.8999999999999995781 ) ) ;
#85 = PERSON_AND_ORGANIZATION ( #185, #143 ) ;
#86 = DIRECTION ( 'NONE',  ( 0.0000000000000000000, -1.000000000000000000, 0.0000000000000000000 ) ) ;
#87 = DATE_TIME_ROLE ( 'creation_date' ) ;
#88 = CARTESIAN_POINT ( 'NONE',  ( 3.142333204958819231E-15, -1.097318642251883818E-16, 0.8999999999999998002 ) ) ;
#89 = VERTEX_POINT ( 'NONE', #39 ) ;
#90 = CYLINDRICAL_SURFACE ( 'NONE', #72, 1.499999999999991562 ) ;
#91 = PRODUCT_DEFINITION_FORMATION_WITH_SPECIFIED_SOURCE ( 'ANY', '', #151, .NOT_KNOWN. ) ;
#92 = FACE_OUTER_BOUND ( 'NONE', #182, .T. ) ;
#93 = DIRECTION ( 'NONE',  ( -3.491481338843133355E-15, 1.224646799147353207E-16, -1.000000000000000000 ) ) ;
#94 = EDGE_CURVE ( 'NONE', #82, #82, #230, .T. ) ;
#95 = ADVANCED_FACE ( 'NONE', ( #25 ), #108, .T. ) ;
#96 = FACE_OUTER_BOUND ( 'NONE', #114, .T. ) ;
#97 = AXIS2_PLACEMENT_3D ( 'NONE', #40, #93, #75 ) ;
#98 = APPLICATION_PROTOCOL_DEFINITION ( 'international standard', 'config_control_design', 1994, #57 ) ;
#99 = ORIENTED_EDGE ( 'NONE', *, *, #76, .T. ) ;
#100 = ORIENTED_EDGE ( 'NONE', *, *, #118, .T. ) ;
#101 = APPROVAL_PERSON_ORGANIZATION ( #130, #52, #152 ) ;
#102 = PERSON_AND_ORGANIZATION ( #185, #143 ) ;
#103 = EDGE_LOOP ( 'NONE', ( #128 ) ) ;
#104 = DATE_AND_TIME ( #134, #49 ) ;
#105 = CLOSED_SHELL ( 'NONE', ( #33, #170, #228, #12, #150, #137 ) ) ;
#106 = ADVANCED_FACE ( 'NONE', ( #162 ), #125, .F. ) ;
#107 = APPROVAL_DATE_TIME ( #208, #147 ) ;
#108 = PLANE ( 'NONE',  #6 ) ;
#109 = DIRECTION ( 'NONE',  ( 3.491481338843133355E-15, -1.224646799147353207E-16, 1.000000000000000000 ) ) ;
#110 = EDGE_CURVE ( 'NONE', #89, #89, #166, .T. ) ;
#111 = CC_DESIGN_PERSON_AND_ORGANIZATION_ASSIGNMENT ( #85, #234, ( #91 ) ) ;
#112 = AXIS2_PLACEMENT_3D ( 'NONE', #10, #195, #86 ) ;
#113 = CALENDAR_DATE ( 2021, 16, 11 ) ;
#114 = EDGE_LOOP ( 'NONE', ( #4 ) ) ;
#115 = AXIS2_PLACEMENT_3D ( 'NONE', #183, #241, #146 ) ;
#116 = DIRECTION ( 'NONE',  ( 0.0000000000000000000, -1.000000000000000000, 0.0000000000000000000 ) ) ;
#117 = DIRECTION ( 'NONE',  ( 0.0000000000000000000, 0.0000000000000000000, 1.000000000000000000 ) ) ;
#118 = EDGE_CURVE ( 'NONE', #157, #157, #63, .T. ) ;
#119 = EDGE_LOOP ( 'NONE', ( #121 ) ) ;
#120 = CALENDAR_DATE ( 2021, 16, 11 ) ;
#121 = ORIENTED_EDGE ( 'NONE', *, *, #242, .T. ) ;
#122 = VERTEX_POINT ( 'NONE', #70 ) ;
#123 = ORIENTED_EDGE ( 'NONE', *, *, #110, .F. ) ;
#124 = DIRECTION ( 'NONE',  ( 3.491481338843133355E-15, -1.219242935835426903E-16, 1.000000000000000000 ) ) ;
#125 = PLANE ( 'NONE',  #30 ) ;
#126 = CC_DESIGN_PERSON_AND_ORGANIZATION_ASSIGNMENT ( #132, #36, ( #159 ) ) ;
#127 = LOCAL_TIME ( 15, 59, 2.000000000000000000, #205 ) ;
#128 = ORIENTED_EDGE ( 'NONE', *, *, #193, .T. ) ;
#129 = AXIS2_PLACEMENT_3D ( 'NONE', #48, #20, #116 ) ;
#130 = PERSON_AND_ORGANIZATION ( #185, #143 ) ;
#131 = ORIENTED_EDGE ( 'NONE', *, *, #193, .F. ) ;
#132 = PERSON_AND_ORGANIZATION ( #185, #143 ) ;
#133 = EDGE_LOOP ( 'NONE', ( #189 ) ) ;
#134 = CALENDAR_DATE ( 2021, 16, 11 ) ;
#135 = AXIS2_PLACEMENT_3D ( 'NONE', #175, #7, #219 ) ;
#136 = LOCAL_TIME ( 15, 59, 2.000000000000000000, #26 ) ;
#137 = ADVANCED_FACE ( 'NONE', ( #29 ), #164, .F. ) ;
#138 = DIRECTION ( 'NONE',  ( -4.336470827456546043E-31, -1.000000000000000000, -1.219242935835426903E-16 ) ) ;
#139 = COORDINATED_UNIVERSAL_TIME_OFFSET ( 1, 0, .AHEAD. ) ;
#140 = DIRECTION ( 'NONE',  ( -4.275831445896958607E-31, -1.000000000000000000, -1.224646799147353207E-16 ) ) ;
#141 = SHAPE_DEFINITION_REPRESENTATION ( #190, #51 ) ;
#142 =( LENGTH_UNIT ( ) NAMED_UNIT ( * ) SI_UNIT ( .MILLI., .METRE. ) );
#143 = ORGANIZATION ( 'UNSPECIFIED', 'UNSPECIFIED', '' ) ;
#144 = EDGE_LOOP ( 'NONE', ( #2 ) ) ;
#145 = CARTESIAN_POINT ( 'NONE',  ( 3.435730455134720320E-14, -1.199774445377852893E-15, 9.840323122772623776 ) ) ;
#146 = DIRECTION ( 'NONE',  ( 0.0000000000000000000, 1.000000000000000000, 0.0000000000000000000 ) ) ;
#147 = APPROVAL ( #59, 'UNSPECIFIED' ) ;
#148 = FACE_OUTER_BOUND ( 'NONE', #54, .T. ) ;
#149 = MANIFOLD_SOLID_BREP ( 'Corps-Déplacer/Copier1[2]', #176 ) ;
#150 = ADVANCED_FACE ( 'NONE', ( #92, #229 ), #16, .F. ) ;
#151 = PRODUCT ( '964114', '964114', '', ( #226 ) ) ;
#152 = APPROVAL_ROLE ( '' ) ;
#153 = AXIS2_PLACEMENT_3D ( 'NONE', #78, #117, #200 ) ;
#154 = ORIENTED_EDGE ( 'NONE', *, *, #64, .F. ) ;
#155 = COORDINATED_UNIVERSAL_TIME_OFFSET ( 1, 0, .AHEAD. ) ;
#156 = UNCERTAINTY_MEASURE_WITH_UNIT (LENGTH_MEASURE( 1.000000000000000082E-05 ), #142, 'distance_accuracy_value', 'NONE');
#157 = VERTEX_POINT ( 'NONE', #61 ) ;
#158 = DIRECTION ( 'NONE',  ( 0.0000000000000000000, -1.000000000000000000, 0.0000000000000000000 ) ) ;
#159 = PRODUCT_DEFINITION ( 'UNKNOWN', '', #91, #192 ) ;
#160 = DIRECTION ( 'NONE',  ( -4.275831445896958607E-31, -1.000000000000000000, -1.224646799147353207E-16 ) ) ;
#161 = PERSON_AND_ORGANIZATION ( #185, #143 ) ;
#162 = FACE_OUTER_BOUND ( 'NONE', #34, .T. ) ;
#163 = AXIS2_PLACEMENT_3D ( 'NONE', #84, #65, #138 ) ;
#164 = PLANE ( 'NONE',  #221 ) ;
#165 = DIRECTION ( 'NONE',  ( -4.256963957985709765E-31, -1.000000000000000000, -1.219242935835426903E-16 ) ) ;
#166 = CIRCLE ( 'NONE', #236, 0.1749999999999999056 ) ;
#167 = APPROVAL_PERSON_ORGANIZATION ( #213, #147, #172 ) ;
#168 = PERSON_AND_ORGANIZATION ( #185, #143 ) ;
#169 = VERTEX_POINT ( 'NONE', #201 ) ;
#170 = ADVANCED_FACE ( 'NONE', ( #5, #214 ), #43, .T. ) ;
#171 = LOCAL_TIME ( 15, 59, 2.000000000000000000, #139 ) ;
#172 = APPROVAL_ROLE ( '' ) ;
#173 = PERSON_AND_ORGANIZATION_ROLE ( 'creator' ) ;
#174 = CC_DESIGN_PERSON_AND_ORGANIZATION_ASSIGNMENT ( #168, #79, ( #151 ) ) ;
#175 = CARTESIAN_POINT ( 'NONE',  ( -3.281381396849297816E-30, 1.145874973863075917E-31, -9.398249849837520735E-16 ) ) ;
#176 = CLOSED_SHELL ( 'NONE', ( #95, #210, #106 ) ) ;
#177 = AXIS2_PLACEMENT_3D ( 'NONE', #32, #223, #165 ) ;
#178 = DIRECTION ( 'NONE',  ( 0.0000000000000000000, -1.000000000000000000, 0.0000000000000000000 ) ) ;
#179 = CALENDAR_DATE ( 2021, 16, 11 ) ;
#180 = DIRECTION ( 'NONE',  ( 3.491481338843133355E-15, -1.219242935835426903E-16, 1.000000000000000000 ) ) ;
#181 = APPROVAL_PERSON_ORGANIZATION ( #102, #31, #19 ) ;
#182 = EDGE_LOOP ( 'NONE', ( #80 ) ) ;
#183 = CARTESIAN_POINT ( 'NONE',  ( 1.326762908760390423E-13, -4.653657836759941941E-15, 38.00000000000000000 ) ) ;
#184 = PLANE ( 'NONE',  #55 ) ;
#185 = PERSON ( 'UNSPECIFIED', 'UNSPECIFIED', 'UNSPECIFIED', ('UNSPECIFIED'), ('UNSPECIFIED'), ('UNSPECIFIED') ) ;
#186 = FACE_OUTER_BOUND ( 'NONE', #18, .T. ) ;
#187 = CC_DESIGN_SECURITY_CLASSIFICATION ( #225, ( #91 ) ) ;
#188 = DATE_AND_TIME ( #113, #127 ) ;
#189 = ORIENTED_EDGE ( 'NONE', *, *, #94, .T. ) ;
#190 = PRODUCT_DEFINITION_SHAPE ( 'NONE', 'NONE',  #159 ) ;
#191 = CARTESIAN_POINT ( 'NONE',  ( 2.132691880110566909E-14, -1.499999999999992228, 6.108272315203644887 ) ) ;
#192 = DESIGN_CONTEXT ( 'detailed design', #240, 'design' ) ;
#193 = EDGE_CURVE ( 'NONE', #122, #122, #199, .T. ) ;
#194 = FACE_OUTER_BOUND ( 'NONE', #37, .T. ) ;
#195 = DIRECTION ( 'NONE',  ( 3.491481338843133355E-15, -1.219242935835426903E-16, 1.000000000000000000 ) ) ;
#196 = DIRECTION ( 'NONE',  ( 4.275831445896958607E-31, 1.000000000000000000, 1.224646799147353207E-16 ) ) ;
#197 = DIRECTION ( 'NONE',  ( -3.491481338843133355E-15, 1.224646799147353207E-16, -1.000000000000000000 ) ) ;
#198 = EDGE_LOOP ( 'NONE', ( #123 ) ) ;
#199 = CIRCLE ( 'NONE', #115, 1.199999999999993738 ) ;
#200 = DIRECTION ( 'NONE',  ( 1.000000000000000000, 0.0000000000000000000, 0.0000000000000000000 ) ) ;
#201 = CARTESIAN_POINT ( 'NONE',  ( -3.355878266114047833E-30, -0.1750000000000000167, -9.611617363608719407E-16 ) ) ;
#202 = ORIENTED_EDGE ( 'NONE', *, *, #94, .F. ) ;
#203 = CIRCLE ( 'NONE', #112, 0.2431483474218595620 ) ;
#204 = EDGE_LOOP ( 'NONE', ( #22 ) ) ;
#205 = COORDINATED_UNIVERSAL_TIME_OFFSET ( 1, 0, .AHEAD. ) ;
#206 = APPLICATION_PROTOCOL_DEFINITION ( 'international standard', 'config_control_design', 1994, #240 ) ;
#207 = CC_DESIGN_DATE_AND_TIME_ASSIGNMENT ( #66, #81, ( #225 ) ) ;
#208 = DATE_AND_TIME ( #120, #50 ) ;
#209 =( NAMED_UNIT ( * ) SI_UNIT ( $, .STERADIAN. ) SOLID_ANGLE_UNIT ( ) );
#210 = ADVANCED_FACE ( 'NONE', ( #96, #148 ), #222, .T. ) ;
#211 = AXIS2_PLACEMENT_3D ( 'NONE', #145, #180, #178 ) ;
#212 = APPROVAL_DATE_TIME ( #44, #31 ) ;
#213 = PERSON_AND_ORGANIZATION ( #185, #143 ) ;
#214 = FACE_BOUND ( 'NONE', #103, .T. ) ;
#215 = CARTESIAN_POINT ( 'NONE',  ( 0.0000000000000000000, 0.0000000000000000000, 0.0000000000000000000 ) ) ;
#216 = CIRCLE ( 'NONE', #135, 0.1750000000000000167 ) ;
#217 = PERSON_AND_ORGANIZATION_ROLE ( 'classification_officer' ) ;
#218 = FACE_OUTER_BOUND ( 'NONE', #144, .T. ) ;
#219 = DIRECTION ( 'NONE',  ( -4.256963957985700131E-31, -1.000000000000000000, -1.219242935835430354E-16 ) ) ;
#220 = CARTESIAN_POINT ( 'NONE',  ( 1.326762908760390423E-13, 8.998558695971030697E-33, 38.00000000000000000 ) ) ;
#221 = AXIS2_PLACEMENT_3D ( 'NONE', #23, #109, #11 ) ;
#222 = CYLINDRICAL_SURFACE ( 'NONE', #177, 0.1749999999999999611 ) ;
#223 = DIRECTION ( 'NONE',  ( 3.491481338843133355E-15, -1.219242935835426903E-16, 1.000000000000000000 ) ) ;
#224 = MANIFOLD_SOLID_BREP ( 'Corps-Déplacer/Copier1[1]', #105 ) ;
#225 = SECURITY_CLASSIFICATION ( '', '', #8 ) ;
#226 = MECHANICAL_CONTEXT ( 'NONE', #57, 'mechanical' ) ;
#227 = CARTESIAN_POINT ( 'NONE',  ( 4.949656937184069301E-15, -0.2431483474218597285, 1.417638090205026735 ) ) ;
#228 = ADVANCED_FACE ( 'NONE', ( #186 ), #184, .F. ) ;
#229 = FACE_OUTER_BOUND ( 'NONE', #41, .T. ) ;
#230 = CIRCLE ( 'NONE', #62, 0.1749999999999999056 ) ;
#231 = CARTESIAN_POINT ( 'NONE',  ( -1.282754905350004587E-30, 4.499298539707956128E-32, -3.673956068672651857E-16 ) ) ;
#232 = CARTESIAN_POINT ( 'NONE',  ( 3.142333204958819231E-15, -0.1750000000000000167, 0.8999999999999998002 ) ) ;
#233 = CARTESIAN_POINT ( 'NONE',  ( 3.142333204958819231E-15, -1.097318642251883818E-16, 0.8999999999999998002 ) ) ;
#234 = PERSON_AND_ORGANIZATION_ROLE ( 'design_supplier' ) ;
#235 = CARTESIAN_POINT ( 'NONE',  ( 1.316288464743861212E-13, -4.616918432785521081E-15, 37.69999999999999574 ) ) ;
#236 = AXIS2_PLACEMENT_3D ( 'NONE', #233, #124, #27 ) ;
#237 = CC_DESIGN_PERSON_AND_ORGANIZATION_ASSIGNMENT ( #83, #217, ( #225 ) ) ;
#238 = CARTESIAN_POINT ( 'NONE',  ( 3.142333204958818836E-15, 1.124819836996384995E-32, 0.8999999999999996891 ) ) ;
#239 = CC_DESIGN_APPROVAL ( #147, ( #91 ) ) ;
#240 = APPLICATION_CONTEXT ( 'configuration controlled 3d designs of mechanical parts and assemblies' ) ;
#241 = DIRECTION ( 'NONE',  ( -3.491481338843133355E-15, 1.224646799147353207E-16, -1.000000000000000000 ) ) ;
#242 = EDGE_CURVE ( 'NONE', #24, #24, #35, .T. ) ;
#243 = ORIENTED_EDGE ( 'NONE', *, *, #76, .F. ) ;
ENDSEC;
END-ISO-10303-21;
