ISO-10303-21;
HEADER;
FILE_DESCRIPTION (( 'STEP AP203' ),
    '1' );
FILE_NAME ('964113.step',
    '2021-11-16T15:36:01',
    ( '' ),
    ( '' ),
    'SwSTEP 2.0',
    'SolidWorks 2019',
    '' );
FILE_SCHEMA (( 'CONFIG_CONTROL_DESIGN' ));
ENDSEC;

DATA;
#1 = DIRECTION ( 'NONE',  ( 3.491481338843133355E-15, -1.224646799147353207E-16, 1.000000000000000000 ) ) ;
#2 = DIRECTION ( 'NONE',  ( 1.000000000000000000, 0.0000000000000000000, 0.0000000000000000000 ) ) ;
#3 = CALENDAR_DATE ( 2021, 16, 11 ) ;
#4 = LOCAL_TIME ( 16, 36, 1.000000000000000000, #63 ) ;
#5 = CARTESIAN_POINT ( 'NONE',  ( -6.413731847436034514E-31, 0.0000000000000000000, -1.836965810494968570E-16 ) ) ;
#6 = DIRECTION ( 'NONE',  ( 3.491481338843133355E-15, -1.227517819005651059E-16, 1.000000000000000000 ) ) ;
#7 = FACE_OUTER_BOUND ( 'NONE', #222, .T. ) ;
#8 = APPROVAL ( #188, 'UNSPECIFIED' ) ;
#9 = ORIENTED_EDGE ( 'NONE', *, *, #140, .T. ) ;
#10 =( NAMED_UNIT ( * ) PLANE_ANGLE_UNIT ( ) SI_UNIT ( $, .RADIAN. ) );
#11 = AXIS2_PLACEMENT_3D ( 'NONE', #124, #195, #180 ) ;
#12 =( NAMED_UNIT ( * ) SI_UNIT ( $, .STERADIAN. ) SOLID_ANGLE_UNIT ( ) );
#13 = CC_DESIGN_DATE_AND_TIME_ASSIGNMENT ( #196, #163, ( #36 ) ) ;
#14 = COORDINATED_UNIVERSAL_TIME_OFFSET ( 1, 0, .AHEAD. ) ;
#15 = ORIENTED_EDGE ( 'NONE', *, *, #120, .T. ) ;
#16 = DESIGN_CONTEXT ( 'detailed design', #71, 'design' ) ;
#17 = APPROVAL ( #20, 'UNSPECIFIED' ) ;
#18 = APPLICATION_PROTOCOL_DEFINITION ( 'international standard', 'config_control_design', 1994, #34 ) ;
#19 = APPLICATION_PROTOCOL_DEFINITION ( 'international standard', 'config_control_design', 1994, #71 ) ;
#20 = APPROVAL_STATUS ( 'not_yet_approved' ) ;
#21 = CYLINDRICAL_SURFACE ( 'NONE', #32, 0.9999999999999986677 ) ;
#22 = ADVANCED_FACE ( 'NONE', ( #96 ), #223, .F. ) ;
#23 = CLOSED_SHELL ( 'NONE', ( #24, #67, #192 ) ) ;
#24 = ADVANCED_FACE ( 'NONE', ( #186 ), #151, .T. ) ;
#25 = AXIS2_PLACEMENT_3D ( 'NONE', #76, #44, #118 ) ;
#26 = FACE_OUTER_BOUND ( 'NONE', #201, .T. ) ;
#27 = VERTEX_POINT ( 'NONE', #93 ) ;
#28 = FACE_OUTER_BOUND ( 'NONE', #181, .T. ) ;
#29 = DIRECTION ( 'NONE',  ( -4.348338603810381847E-31, -1.000000000000000000, -1.227517819005651059E-16 ) ) ;
#30 = ORIENTED_EDGE ( 'NONE', *, *, #140, .F. ) ;
#31 = ORIENTED_EDGE ( 'NONE', *, *, #207, .F. ) ;
#32 = AXIS2_PLACEMENT_3D ( 'NONE', #5, #144, #57 ) ;
#33 = EDGE_LOOP ( 'NONE', ( #30 ) ) ;
#34 = APPLICATION_CONTEXT ( 'configuration controlled 3d designs of mechanical parts and assemblies' ) ;
#35 = LOCAL_TIME ( 16, 36, 1.000000000000000000, #134 ) ;
#36 = SECURITY_CLASSIFICATION ( '', '', #47 ) ;
#37 = APPROVAL_ROLE ( '' ) ;
#38 = UNCERTAINTY_MEASURE_WITH_UNIT (LENGTH_MEASURE( 1.000000000000000082E-05 ), #203, 'distance_accuracy_value', 'NONE');
#39 = AXIS2_PLACEMENT_3D ( 'NONE', #68, #70, #115 ) ;
#40 = PERSON_AND_ORGANIZATION ( #136, #116 ) ;
#41 = CARTESIAN_POINT ( 'NONE',  ( 1.326762908760390423E-13, 1.199999999999992628, 38.00000000000000000 ) ) ;
#42 = EDGE_CURVE ( 'NONE', #119, #119, #221, .T. ) ;
#43 = CARTESIAN_POINT ( 'NONE',  ( 3.765172339669344984E-14, -2.076449974346730531E-15, 10.78388218141499877 ) ) ;
#44 = DIRECTION ( 'NONE',  ( 3.491481338843133355E-15, -1.224646799147353207E-16, 1.000000000000000000 ) ) ;
#45 = PRODUCT_DEFINITION_SHAPE ( 'NONE', 'NONE',  #56 ) ;
#46 = CARTESIAN_POINT ( 'NONE',  ( 1.326762908760390423E-13, 8.998558695971058066E-33, 38.00000000000000000 ) ) ;
#47 = SECURITY_CLASSIFICATION_LEVEL ( 'unclassified' ) ;
#48 = DIRECTION ( 'NONE',  ( -3.491481338843133355E-15, 1.224646799147353207E-16, -1.000000000000000000 ) ) ;
#49 = CALENDAR_DATE ( 2021, 16, 11 ) ;
#50 = ADVANCED_FACE ( 'NONE', ( #53 ), #173, .F. ) ;
#51 = EDGE_LOOP ( 'NONE', ( #9 ) ) ;
#52 = ADVANCED_FACE ( 'NONE', ( #28, #94 ), #69, .T. ) ;
#53 = FACE_OUTER_BOUND ( 'NONE', #145, .T. ) ;
#54 = PERSON_AND_ORGANIZATION_ROLE ( 'design_owner' ) ;
#55 = CIRCLE ( 'NONE', #122, 1.499999999999996891 ) ;
#56 = PRODUCT_DEFINITION ( 'UNKNOWN', '', #211, #16 ) ;
#57 = DIRECTION ( 'NONE',  ( -4.285855558155653280E-31, -1.000000000000000000, -1.227517819005651059E-16 ) ) ;
#58 = CARTESIAN_POINT ( 'NONE',  ( -1.069960272700106229E-30, 1.506805382602064989E-32, -3.064488017726672858E-16 ) ) ;
#59 = CC_DESIGN_PERSON_AND_ORGANIZATION_ASSIGNMENT ( #40, #65, ( #211 ) ) ;
#60 = VERTEX_POINT ( 'NONE', #81 ) ;
#61 = AXIS2_PLACEMENT_3D ( 'NONE', #153, #72, #2 ) ;
#62 = VERTEX_POINT ( 'NONE', #106 ) ;
#63 = COORDINATED_UNIVERSAL_TIME_OFFSET ( 1, 0, .AHEAD. ) ;
#64 = DIRECTION ( 'NONE',  ( 0.0000000000000000000, -1.000000000000000000, 0.0000000000000000000 ) ) ;
#65 = PERSON_AND_ORGANIZATION_ROLE ( 'creator' ) ;
#66 = ADVANCED_FACE ( 'NONE', ( #176, #26 ), #107, .T. ) ;
#67 = ADVANCED_FACE ( 'NONE', ( #91, #110 ), #21, .T. ) ;
#68 = CARTESIAN_POINT ( 'NONE',  ( 2.793185071074506684E-14, 1.124819836996386911E-32, 8.000000000000000000 ) ) ;
#69 = CONICAL_SURFACE ( 'NONE', #138, 1.199999999999997291, 0.7853981633974450594 ) ;
#70 = DIRECTION ( 'NONE',  ( 3.491481338843133355E-15, -1.224646799147353207E-16, 1.000000000000000000 ) ) ;
#71 = APPLICATION_CONTEXT ( 'configuration controlled 3d designs of mechanical parts and assemblies' ) ;
#72 = DIRECTION ( 'NONE',  ( 0.0000000000000000000, 0.0000000000000000000, 1.000000000000000000 ) ) ;
#73 = CIRCLE ( 'NONE', #11, 0.9999999999999985567 ) ;
#74 = APPROVAL_DATE_TIME ( #155, #8 ) ;
#75 = CALENDAR_DATE ( 2021, 16, 11 ) ;
#76 = CARTESIAN_POINT ( 'NONE',  ( -6.413803915257453610E-31, 2.249659577954771104E-32, -1.836986451539392090E-16 ) ) ;
#77 = AXIS2_PLACEMENT_3D ( 'NONE', #168, #1, #87 ) ;
#78 = LOCAL_TIME ( 16, 36, 1.000000000000000000, #14 ) ;
#79 = DIRECTION ( 'NONE',  ( -3.491481338843133355E-15, 1.227517819005651059E-16, -1.000000000000000000 ) ) ;
#80 = CARTESIAN_POINT ( 'NONE',  ( 2.793185071074506053E-14, -0.9999999999999995559, 7.999999999999998224 ) ) ;
#81 = CARTESIAN_POINT ( 'NONE',  ( -1.498545828515671206E-30, -0.9999999999999988898, -4.292005836732322930E-16 ) ) ;
#82 = CIRCLE ( 'NONE', #171, 1.499999999999995337 ) ;
#83 = CARTESIAN_POINT ( 'NONE',  ( 1.326762908760390423E-13, -4.653657836759941941E-15, 38.00000000000000000 ) ) ;
#84 = PERSON_AND_ORGANIZATION ( #136, #116 ) ;
#85 = EDGE_LOOP ( 'NONE', ( #167 ) ) ;
#86 = EDGE_LOOP ( 'NONE', ( #202 ) ) ;
#87 = DIRECTION ( 'NONE',  ( -4.275831445896958607E-31, -1.000000000000000000, -1.224646799147353207E-16 ) ) ;
#88 = APPROVAL_PERSON_ORGANIZATION ( #191, #17, #90 ) ;
#89 = PERSON_AND_ORGANIZATION ( #136, #116 ) ;
#90 = APPROVAL_ROLE ( '' ) ;
#91 = FACE_OUTER_BOUND ( 'NONE', #165, .T. ) ;
#92 = CC_DESIGN_APPROVAL ( #17, ( #56 ) ) ;
#93 = CARTESIAN_POINT ( 'NONE',  ( 2.793185071074506053E-14, -0.9999999999999995559, 7.999999999999998224 ) ) ;
#94 = FACE_BOUND ( 'NONE', #183, .T. ) ;
#95 = ORIENTED_EDGE ( 'NONE', *, *, #207, .T. ) ;
#96 = FACE_OUTER_BOUND ( 'NONE', #85, .T. ) ;
#97 = AXIS2_PLACEMENT_3D ( 'NONE', #215, #199, #29 ) ;
#98 = ORIENTED_EDGE ( 'NONE', *, *, #120, .F. ) ;
#99 = CARTESIAN_POINT ( 'NONE',  ( 1.326762908760390423E-13, -4.653657836759941941E-15, 38.00000000000000000 ) ) ;
#100 = APPROVAL_PERSON_ORGANIZATION ( #178, #157, #111 ) ;
#101 = PERSON_AND_ORGANIZATION_ROLE ( 'classification_officer' ) ;
#102 = COORDINATED_UNIVERSAL_TIME_OFFSET ( 1, 0, .AHEAD. ) ;
#103 = CC_DESIGN_PERSON_AND_ORGANIZATION_ASSIGNMENT ( #84, #198, ( #211 ) ) ;
#104 = DATE_AND_TIME ( #75, #147 ) ;
#105 = DIRECTION ( 'NONE',  ( 0.0000000000000000000, 1.000000000000000000, 0.0000000000000000000 ) ) ;
#106 = CARTESIAN_POINT ( 'NONE',  ( 1.316288464743861212E-13, 1.499999999999992450, 37.69999999999999574 ) ) ;
#107 = CYLINDRICAL_SURFACE ( 'NONE', #126, 1.499999999999995337 ) ;
#108 = DIRECTION ( 'NONE',  ( 4.275831445896958607E-31, 1.000000000000000000, 1.224646799147353207E-16 ) ) ;
#109 = APPROVAL_DATE_TIME ( #219, #157 ) ;
#110 = FACE_OUTER_BOUND ( 'NONE', #33, .T. ) ;
#111 = APPROVAL_ROLE ( '' ) ;
#112 = CIRCLE ( 'NONE', #187, 0.9999999999999988898 ) ;
#113 = CIRCLE ( 'NONE', #216, 0.9999999999999985567 ) ;
#114 = EDGE_LOOP ( 'NONE', ( #31 ) ) ;
#115 = DIRECTION ( 'NONE',  ( -4.275831445896958607E-31, -1.000000000000000000, -1.224646799147353207E-16 ) ) ;
#116 = ORGANIZATION ( 'UNSPECIFIED', 'UNSPECIFIED', '' ) ;
#117 =( GEOMETRIC_REPRESENTATION_CONTEXT ( 3 ) GLOBAL_UNCERTAINTY_ASSIGNED_CONTEXT ( ( #38 ) ) GLOBAL_UNIT_ASSIGNED_CONTEXT ( ( #203, #10, #12 ) ) REPRESENTATION_CONTEXT ( 'NONE', 'WORKASPACE' ) );
#118 = DIRECTION ( 'NONE',  ( -4.275831445896958607E-31, -1.000000000000000000, -1.224646799147353207E-16 ) ) ;
#119 = VERTEX_POINT ( 'NONE', #41 ) ;
#120 = EDGE_CURVE ( 'NONE', #62, #62, #55, .T. ) ;
#121 = PLANE ( 'NONE',  #25 ) ;
#122 = AXIS2_PLACEMENT_3D ( 'NONE', #197, #194, #174 ) ;
#123 = CARTESIAN_POINT ( 'NONE',  ( 0.0000000000000000000, 0.0000000000000000000, 0.0000000000000000000 ) ) ;
#124 = CARTESIAN_POINT ( 'NONE',  ( 2.793185071074506053E-14, -9.820142552045206497E-16, 7.999999999999998224 ) ) ;
#125 = CC_DESIGN_DATE_AND_TIME_ASSIGNMENT ( #206, #154, ( #56 ) ) ;
#126 = AXIS2_PLACEMENT_3D ( 'NONE', #123, #137, #108 ) ;
#127 = EDGE_LOOP ( 'NONE', ( #15 ) ) ;
#128 = CALENDAR_DATE ( 2021, 16, 11 ) ;
#129 = ORIENTED_EDGE ( 'NONE', *, *, #182, .F. ) ;
#130 = DIRECTION ( 'NONE',  ( -3.491481338843133355E-15, 1.224646799147353207E-16, -1.000000000000000000 ) ) ;
#131 = PERSON_AND_ORGANIZATION_ROLE ( 'creator' ) ;
#132 = MANIFOLD_SOLID_BREP ( 'Corps-Déplacer/Copier1[1]', #208 ) ;
#133 = MANIFOLD_SOLID_BREP ( 'Corps-Déplacer/Copier1[2]', #23 ) ;
#134 = COORDINATED_UNIVERSAL_TIME_OFFSET ( 1, 0, .AHEAD. ) ;
#135 = APPROVAL_PERSON_ORGANIZATION ( #156, #8, #37 ) ;
#136 = PERSON ( 'UNSPECIFIED', 'UNSPECIFIED', 'UNSPECIFIED', ('UNSPECIFIED'), ('UNSPECIFIED'), ('UNSPECIFIED') ) ;
#137 = DIRECTION ( 'NONE',  ( -3.491481338843133355E-15, 1.224646799147353207E-16, -1.000000000000000000 ) ) ;
#138 = AXIS2_PLACEMENT_3D ( 'NONE', #83, #212, #105 ) ;
#139 = FACE_OUTER_BOUND ( 'NONE', #86, .T. ) ;
#140 = EDGE_CURVE ( 'NONE', #27, #27, #113, .T. ) ;
#141 = VERTEX_POINT ( 'NONE', #214 ) ;
#142 = DIRECTION ( 'NONE',  ( 4.275831445896958607E-31, 1.000000000000000000, 1.224646799147353207E-16 ) ) ;
#143 = APPROVAL_STATUS ( 'not_yet_approved' ) ;
#144 = DIRECTION ( 'NONE',  ( 3.491481338843133355E-15, -1.227517819005651059E-16, 1.000000000000000000 ) ) ;
#145 = EDGE_LOOP ( 'NONE', ( #218 ) ) ;
#146 = AXIS2_PLACEMENT_3D ( 'NONE', #46, #48, #142 ) ;
#147 = LOCAL_TIME ( 16, 36, 1.000000000000000000, #158 ) ;
#148 = ORIENTED_EDGE ( 'NONE', *, *, #182, .T. ) ;
#149 = ORIENTED_EDGE ( 'NONE', *, *, #42, .T. ) ;
#150 = EDGE_CURVE ( 'NONE', #161, #161, #73, .T. ) ;
#151 = PLANE ( 'NONE',  #77 ) ;
#152 = TOROIDAL_SURFACE ( 'NONE', #97, 9.000000000000000000, 8.000000000000000000 ) ;
#153 = CARTESIAN_POINT ( 'NONE',  ( 0.0000000000000000000, 0.0000000000000000000, 0.0000000000000000000 ) ) ;
#154 = DATE_TIME_ROLE ( 'creation_date' ) ;
#155 = DATE_AND_TIME ( #3, #169 ) ;
#156 = PERSON_AND_ORGANIZATION ( #136, #116 ) ;
#157 = APPROVAL ( #143, 'UNSPECIFIED' ) ;
#158 = COORDINATED_UNIVERSAL_TIME_OFFSET ( 1, 0, .AHEAD. ) ;
#159 = PRODUCT ( '964113', '964113', '', ( #209 ) ) ;
#160 = CC_DESIGN_APPROVAL ( #157, ( #36 ) ) ;
#161 = VERTEX_POINT ( 'NONE', #80 ) ;
#162 = SHAPE_DEFINITION_REPRESENTATION ( #45, #179 ) ;
#163 = DATE_TIME_ROLE ( 'classification_date' ) ;
#164 = FACE_OUTER_BOUND ( 'NONE', #114, .T. ) ;
#165 = EDGE_LOOP ( 'NONE', ( #95 ) ) ;
#166 = ADVANCED_FACE ( 'NONE', ( #139, #7 ), #152, .F. ) ;
#167 = ORIENTED_EDGE ( 'NONE', *, *, #150, .F. ) ;
#168 = CARTESIAN_POINT ( 'NONE',  ( 2.793185071074506684E-14, 1.124819836996386911E-32, 8.000000000000000000 ) ) ;
#169 = LOCAL_TIME ( 16, 36, 1.000000000000000000, #102 ) ;
#170 = CC_DESIGN_PERSON_AND_ORGANIZATION_ASSIGNMENT ( #220, #101, ( #36 ) ) ;
#171 = AXIS2_PLACEMENT_3D ( 'NONE', #43, #79, #213 ) ;
#172 = CC_DESIGN_PERSON_AND_ORGANIZATION_ASSIGNMENT ( #210, #54, ( #159 ) ) ;
#173 = PLANE ( 'NONE',  #146 ) ;
#174 = DIRECTION ( 'NONE',  ( 0.0000000000000000000, 1.000000000000000000, 0.0000000000000000000 ) ) ;
#175 = CC_DESIGN_SECURITY_CLASSIFICATION ( #36, ( #211 ) ) ;
#176 = FACE_OUTER_BOUND ( 'NONE', #127, .T. ) ;
#177 = CARTESIAN_POINT ( 'NONE',  ( 2.793185071074506053E-14, -9.820142552045206497E-16, 7.999999999999998224 ) ) ;
#178 = PERSON_AND_ORGANIZATION ( #136, #116 ) ;
#179 = ADVANCED_BREP_SHAPE_REPRESENTATION ( '964113', ( #132, #133, #61 ), #117 ) ;
#180 = DIRECTION ( 'NONE',  ( 0.0000000000000000000, -1.000000000000000000, 0.0000000000000000000 ) ) ;
#181 = EDGE_LOOP ( 'NONE', ( #98 ) ) ;
#182 = EDGE_CURVE ( 'NONE', #141, #141, #82, .T. ) ;
#183 = EDGE_LOOP ( 'NONE', ( #149 ) ) ;
#184 = AXIS2_PLACEMENT_3D ( 'NONE', #99, #130, #204 ) ;
#185 = CC_DESIGN_APPROVAL ( #8, ( #211 ) ) ;
#186 = FACE_OUTER_BOUND ( 'NONE', #51, .T. ) ;
#187 = AXIS2_PLACEMENT_3D ( 'NONE', #58, #6, #193 ) ;
#188 = APPROVAL_STATUS ( 'not_yet_approved' ) ;
#189 = PRODUCT_RELATED_PRODUCT_CATEGORY ( 'detail', '', ( #159 ) ) ;
#190 = APPROVAL_DATE_TIME ( #104, #17 ) ;
#191 = PERSON_AND_ORGANIZATION ( #136, #116 ) ;
#192 = ADVANCED_FACE ( 'NONE', ( #164 ), #121, .F. ) ;
#193 = DIRECTION ( 'NONE',  ( -4.285855558155654155E-31, -1.000000000000000000, -1.227517819005651552E-16 ) ) ;
#194 = DIRECTION ( 'NONE',  ( -3.491481338843133355E-15, 1.224646799147353207E-16, -1.000000000000000000 ) ) ;
#195 = DIRECTION ( 'NONE',  ( 3.491481338843133355E-15, -1.227517819005651059E-16, 1.000000000000000000 ) ) ;
#196 = DATE_AND_TIME ( #128, #78 ) ;
#197 = CARTESIAN_POINT ( 'NONE',  ( 1.316288464743861212E-13, -4.616918432785521081E-15, 37.69999999999999574 ) ) ;
#198 = PERSON_AND_ORGANIZATION_ROLE ( 'design_supplier' ) ;
#199 = DIRECTION ( 'NONE',  ( 3.491481338843133355E-15, -1.227517819005651059E-16, 1.000000000000000000 ) ) ;
#200 = CC_DESIGN_PERSON_AND_ORGANIZATION_ASSIGNMENT ( #89, #131, ( #56 ) ) ;
#201 = EDGE_LOOP ( 'NONE', ( #129 ) ) ;
#202 = ORIENTED_EDGE ( 'NONE', *, *, #150, .T. ) ;
#203 =( LENGTH_UNIT ( ) NAMED_UNIT ( * ) SI_UNIT ( .MILLI., .METRE. ) );
#204 = DIRECTION ( 'NONE',  ( 0.0000000000000000000, 1.000000000000000000, 0.0000000000000000000 ) ) ;
#205 = CALENDAR_DATE ( 2021, 16, 11 ) ;
#206 = DATE_AND_TIME ( #205, #35 ) ;
#207 = EDGE_CURVE ( 'NONE', #60, #60, #112, .T. ) ;
#208 = CLOSED_SHELL ( 'NONE', ( #66, #52, #50, #166, #22 ) ) ;
#209 = MECHANICAL_CONTEXT ( 'NONE', #34, 'mechanical' ) ;
#210 = PERSON_AND_ORGANIZATION ( #136, #116 ) ;
#211 = PRODUCT_DEFINITION_FORMATION_WITH_SPECIFIED_SOURCE ( 'ANY', '', #159, .NOT_KNOWN. ) ;
#212 = DIRECTION ( 'NONE',  ( -3.491481338843133355E-15, 1.224646799147353207E-16, -1.000000000000000000 ) ) ;
#213 = DIRECTION ( 'NONE',  ( 0.0000000000000000000, 1.000000000000000000, 0.0000000000000000000 ) ) ;
#214 = CARTESIAN_POINT ( 'NONE',  ( 3.765172339669344984E-14, 1.499999999999993117, 10.78388218141499877 ) ) ;
#215 = CARTESIAN_POINT ( 'NONE',  ( 2.793185071074506053E-14, -1.734723475976807094E-15, 7.999999999999998224 ) ) ;
#216 = AXIS2_PLACEMENT_3D ( 'NONE', #177, #217, #64 ) ;
#217 = DIRECTION ( 'NONE',  ( 3.491481338843133355E-15, -1.227517819005651059E-16, 1.000000000000000000 ) ) ;
#218 = ORIENTED_EDGE ( 'NONE', *, *, #42, .F. ) ;
#219 = DATE_AND_TIME ( #49, #4 ) ;
#220 = PERSON_AND_ORGANIZATION ( #136, #116 ) ;
#221 = CIRCLE ( 'NONE', #184, 1.199999999999997291 ) ;
#222 = EDGE_LOOP ( 'NONE', ( #148 ) ) ;
#223 = PLANE ( 'NONE',  #39 ) ;
ENDSEC;
END-ISO-10303-21;
