ISO-10303-21;
HEADER;
FILE_DESCRIPTION (( 'STEP AP203' ),
    '1' );
FILE_NAME ('964112.step',
    '2021-11-16T15:44:57',
    ( '' ),
    ( '' ),
    'SwSTEP 2.0',
    'SolidWorks 2019',
    '' );
FILE_SCHEMA (( 'CONFIG_CONTROL_DESIGN' ));
ENDSEC;

DATA;
#1 = CARTESIAN_POINT ( 'NONE',  ( 2.793185071074506053E-14, -0.9999999999999995559, 7.999999999999998224 ) ) ;
#2 = FACE_OUTER_BOUND ( 'NONE', #135, .T. ) ;
#3 = CIRCLE ( 'NONE', #141, 1.499999999999990230 ) ;
#4 = DIRECTION ( 'NONE',  ( -3.491481338843133355E-15, 1.224646799147353207E-16, -1.000000000000000000 ) ) ;
#5 = PERSON_AND_ORGANIZATION ( #29, #86 ) ;
#6 = EDGE_CURVE ( 'NONE', #33, #33, #106, .T. ) ;
#7 = DIRECTION ( 'NONE',  ( 0.0000000000000000000, 0.0000000000000000000, 1.000000000000000000 ) ) ;
#8 = PERSON_AND_ORGANIZATION ( #29, #86 ) ;
#9 =( NAMED_UNIT ( * ) SI_UNIT ( $, .STERADIAN. ) SOLID_ANGLE_UNIT ( ) );
#10 = AXIS2_PLACEMENT_3D ( 'NONE', #121, #209, #65 ) ;
#11 = PERSON_AND_ORGANIZATION_ROLE ( 'classification_officer' ) ;
#12 = CC_DESIGN_PERSON_AND_ORGANIZATION_ASSIGNMENT ( #8, #210, ( #96 ) ) ;
#13 = DATE_AND_TIME ( #218, #148 ) ;
#14 = EDGE_LOOP ( 'NONE', ( #17 ) ) ;
#15 = DIRECTION ( 'NONE',  ( 3.491481338843133355E-15, -1.227517819005651059E-16, 1.000000000000000000 ) ) ;
#16 = PERSON_AND_ORGANIZATION ( #29, #86 ) ;
#17 = ORIENTED_EDGE ( 'NONE', *, *, #158, .T. ) ;
#18 = ORIENTED_EDGE ( 'NONE', *, *, #197, .F. ) ;
#19 = LOCAL_TIME ( 16, 44, 57.00000000000000000, #150 ) ;
#20 = CARTESIAN_POINT ( 'NONE',  ( 3.765172339669339304E-14, -2.076449974346728953E-15, 10.78388218141498278 ) ) ;
#21 = CARTESIAN_POINT ( 'NONE',  ( -6.413731847436034514E-31, 0.0000000000000000000, -1.836965810494968570E-16 ) ) ;
#22 = DIRECTION ( 'NONE',  ( 0.0000000000000000000, 1.000000000000000000, 0.0000000000000000000 ) ) ;
#23 = AXIS2_PLACEMENT_3D ( 'NONE', #223, #189, #91 ) ;
#24 = FACE_OUTER_BOUND ( 'NONE', #14, .T. ) ;
#25 = DIRECTION ( 'NONE',  ( 1.000000000000000000, 0.0000000000000000000, 0.0000000000000000000 ) ) ;
#26 = PRODUCT ( '964112', '964112', '', ( #113 ) ) ;
#27 = ADVANCED_FACE ( 'NONE', ( #63, #203 ), #64, .T. ) ;
#28 = ORIENTED_EDGE ( 'NONE', *, *, #146, .T. ) ;
#29 = PERSON ( 'UNSPECIFIED', 'UNSPECIFIED', 'UNSPECIFIED', ('UNSPECIFIED'), ('UNSPECIFIED'), ('UNSPECIFIED') ) ;
#30 = CC_DESIGN_DATE_AND_TIME_ASSIGNMENT ( #54, #129, ( #96 ) ) ;
#31 = PLANE ( 'NONE',  #23 ) ;
#32 = PRODUCT_DEFINITION_FORMATION_WITH_SPECIFIED_SOURCE ( 'ANY', '', #26, .NOT_KNOWN. ) ;
#33 = VERTEX_POINT ( 'NONE', #101 ) ;
#34 = VERTEX_POINT ( 'NONE', #103 ) ;
#35 = DESIGN_CONTEXT ( 'detailed design', #56, 'design' ) ;
#36 = DIRECTION ( 'NONE',  ( 4.275831445896958607E-31, 1.000000000000000000, 1.224646799147353207E-16 ) ) ;
#37 = CC_DESIGN_PERSON_AND_ORGANIZATION_ASSIGNMENT ( #16, #11, ( #162 ) ) ;
#38 = DIRECTION ( 'NONE',  ( 3.491481338843133355E-15, -1.224646799147353207E-16, 1.000000000000000000 ) ) ;
#39 = COORDINATED_UNIVERSAL_TIME_OFFSET ( 1, 0, .AHEAD. ) ;
#40 = DATE_AND_TIME ( #108, #98 ) ;
#41 = CC_DESIGN_PERSON_AND_ORGANIZATION_ASSIGNMENT ( #42, #110, ( #32 ) ) ;
#42 = PERSON_AND_ORGANIZATION ( #29, #86 ) ;
#43 = CIRCLE ( 'NONE', #169, 1.499999999999992006 ) ;
#44 = ADVANCED_FACE ( 'NONE', ( #157 ), #31, .F. ) ;
#45 = EDGE_LOOP ( 'NONE', ( #18 ) ) ;
#46 = COORDINATED_UNIVERSAL_TIME_OFFSET ( 1, 0, .AHEAD. ) ;
#47 = AXIS2_PLACEMENT_3D ( 'NONE', #173, #104, #142 ) ;
#48 = PLANE ( 'NONE',  #92 ) ;
#49 = DIRECTION ( 'NONE',  ( 0.0000000000000000000, 1.000000000000000000, 0.0000000000000000000 ) ) ;
#50 = CIRCLE ( 'NONE', #111, 0.9999999999999988898 ) ;
#51 = FACE_OUTER_BOUND ( 'NONE', #181, .T. ) ;
#52 = DIRECTION ( 'NONE',  ( -4.275831445896958607E-31, -1.000000000000000000, -1.224646799147353207E-16 ) ) ;
#53 = DIRECTION ( 'NONE',  ( 0.0000000000000000000, -1.000000000000000000, 0.0000000000000000000 ) ) ;
#54 = DATE_AND_TIME ( #57, #82 ) ;
#55 = APPROVAL ( #131, 'UNSPECIFIED' ) ;
#56 = APPLICATION_CONTEXT ( 'configuration controlled 3d designs of mechanical parts and assemblies' ) ;
#57 = CALENDAR_DATE ( 2021, 16, 11 ) ;
#58 =( NAMED_UNIT ( * ) PLANE_ANGLE_UNIT ( ) SI_UNIT ( $, .RADIAN. ) );
#59 = PERSON_AND_ORGANIZATION ( #29, #86 ) ;
#60 = ORIENTED_EDGE ( 'NONE', *, *, #112, .T. ) ;
#61 = EDGE_LOOP ( 'NONE', ( #152 ) ) ;
#62 = AXIS2_PLACEMENT_3D ( 'NONE', #208, #125, #174 ) ;
#63 = FACE_OUTER_BOUND ( 'NONE', #200, .T. ) ;
#64 = CONICAL_SURFACE ( 'NONE', #222, 1.199999999999992184, 0.7853981633974338461 ) ;
#65 = DIRECTION ( 'NONE',  ( -4.348338603810381847E-31, -1.000000000000000000, -1.227517819005651059E-16 ) ) ;
#66 = ADVANCED_FACE ( 'NONE', ( #155, #2 ), #176, .T. ) ;
#67 = PLANE ( 'NONE',  #47 ) ;
#68 = VERTEX_POINT ( 'NONE', #206 ) ;
#69 = UNCERTAINTY_MEASURE_WITH_UNIT (LENGTH_MEASURE( 1.000000000000000082E-05 ), #163, 'distance_accuracy_value', 'NONE');
#70 = APPROVAL ( #153, 'UNSPECIFIED' ) ;
#71 =( GEOMETRIC_REPRESENTATION_CONTEXT ( 3 ) GLOBAL_UNCERTAINTY_ASSIGNED_CONTEXT ( ( #69 ) ) GLOBAL_UNIT_ASSIGNED_CONTEXT ( ( #163, #58, #9 ) ) REPRESENTATION_CONTEXT ( 'NONE', 'WORKASPACE' ) );
#72 = DIRECTION ( 'NONE',  ( -3.491481338843133355E-15, 1.224646799147353207E-16, -1.000000000000000000 ) ) ;
#73 = CARTESIAN_POINT ( 'NONE',  ( -2.137917073001454058E-30, 7.498803648657679327E-32, -6.123237862442165323E-16 ) ) ;
#74 = VERTEX_POINT ( 'NONE', #95 ) ;
#75 = APPROVAL_ROLE ( '' ) ;
#76 = LOCAL_TIME ( 16, 44, 57.00000000000000000, #144 ) ;
#77 = APPLICATION_CONTEXT ( 'configuration controlled 3d designs of mechanical parts and assemblies' ) ;
#78 = AXIS2_PLACEMENT_3D ( 'NONE', #140, #138, #53 ) ;
#79 = EDGE_LOOP ( 'NONE', ( #81 ) ) ;
#80 = ADVANCED_FACE ( 'NONE', ( #24, #221 ), #190, .T. ) ;
#81 = ORIENTED_EDGE ( 'NONE', *, *, #188, .F. ) ;
#82 = LOCAL_TIME ( 16, 44, 57.00000000000000000, #211 ) ;
#83 = DATE_AND_TIME ( #84, #19 ) ;
#84 = CALENDAR_DATE ( 2021, 16, 11 ) ;
#85 = ORIENTED_EDGE ( 'NONE', *, *, #6, .F. ) ;
#86 = ORGANIZATION ( 'UNSPECIFIED', 'UNSPECIFIED', '' ) ;
#87 = FACE_OUTER_BOUND ( 'NONE', #171, .T. ) ;
#88 = VERTEX_POINT ( 'NONE', #1 ) ;
#89 = ADVANCED_FACE ( 'NONE', ( #90 ), #48, .F. ) ;
#90 = FACE_OUTER_BOUND ( 'NONE', #45, .T. ) ;
#91 = DIRECTION ( 'NONE',  ( 4.275831445896958607E-31, 1.000000000000000000, 1.224646799147353207E-16 ) ) ;
#92 = AXIS2_PLACEMENT_3D ( 'NONE', #73, #159, #52 ) ;
#93 = APPLICATION_PROTOCOL_DEFINITION ( 'international standard', 'config_control_design', 1994, #56 ) ;
#94 = PRODUCT_RELATED_PRODUCT_CATEGORY ( 'detail', '', ( #26 ) ) ;
#95 = CARTESIAN_POINT ( 'NONE',  ( 3.765172339669339304E-14, 1.499999999999988010, 10.78388218141498278 ) ) ;
#96 = PRODUCT_DEFINITION ( 'UNKNOWN', '', #32, #35 ) ;
#97 = CLOSED_SHELL ( 'NONE', ( #102, #66, #89 ) ) ;
#98 = LOCAL_TIME ( 16, 44, 57.00000000000000000, #39 ) ;
#99 = ORIENTED_EDGE ( 'NONE', *, *, #146, .F. ) ;
#100 = CARTESIAN_POINT ( 'NONE',  ( -1.069960272700104477E-30, 1.506805382602057600E-32, -3.064488017726666941E-16 ) ) ;
#101 = CARTESIAN_POINT ( 'NONE',  ( 2.793185071074506053E-14, -0.9999999999999995559, 7.999999999999998224 ) ) ;
#102 = ADVANCED_FACE ( 'NONE', ( #87 ), #67, .T. ) ;
#103 = CARTESIAN_POINT ( 'NONE',  ( 1.316288464743860707E-13, 1.499999999999987566, 37.69999999999998153 ) ) ;
#104 = DIRECTION ( 'NONE',  ( 3.491481338843133355E-15, -1.224646799147353207E-16, 1.000000000000000000 ) ) ;
#105 = FACE_OUTER_BOUND ( 'NONE', #217, .T. ) ;
#106 = CIRCLE ( 'NONE', #212, 0.9999999999999985567 ) ;
#107 = CC_DESIGN_DATE_AND_TIME_ASSIGNMENT ( #83, #199, ( #162 ) ) ;
#108 = CALENDAR_DATE ( 2021, 16, 11 ) ;
#109 = APPROVAL_DATE_TIME ( #40, #161 ) ;
#110 = PERSON_AND_ORGANIZATION_ROLE ( 'design_supplier' ) ;
#111 = AXIS2_PLACEMENT_3D ( 'NONE', #100, #172, #185 ) ;
#112 = EDGE_CURVE ( 'NONE', #88, #88, #175, .T. ) ;
#113 = MECHANICAL_CONTEXT ( 'NONE', #77, 'mechanical' ) ;
#114 = VERTEX_POINT ( 'NONE', #177 ) ;
#115 = CC_DESIGN_APPROVAL ( #161, ( #32 ) ) ;
#116 = ORIENTED_EDGE ( 'NONE', *, *, #6, .T. ) ;
#117 = PERSON_AND_ORGANIZATION ( #29, #86 ) ;
#118 = CC_DESIGN_PERSON_AND_ORGANIZATION_ASSIGNMENT ( #59, #213, ( #26 ) ) ;
#119 = CARTESIAN_POINT ( 'NONE',  ( 1.326762908760390170E-13, -4.653657836759941152E-15, 37.99999999999999289 ) ) ;
#120 = DIRECTION ( 'NONE',  ( -3.491481338843133355E-15, 1.227517819005651059E-16, -1.000000000000000000 ) ) ;
#121 = CARTESIAN_POINT ( 'NONE',  ( 2.793185071074506053E-14, -1.734723475976807094E-15, 7.999999999999998224 ) ) ;
#122 = CC_DESIGN_SECURITY_CLASSIFICATION ( #162, ( #32 ) ) ;
#123 = DIRECTION ( 'NONE',  ( -3.491481338843133355E-15, 1.224646799147353207E-16, -1.000000000000000000 ) ) ;
#124 = DIRECTION ( 'NONE',  ( 3.491481338843133355E-15, -1.227517819005651059E-16, 1.000000000000000000 ) ) ;
#125 = DIRECTION ( 'NONE',  ( -3.491481338843133355E-15, 1.224646799147353207E-16, -1.000000000000000000 ) ) ;
#126 = PERSON_AND_ORGANIZATION ( #29, #86 ) ;
#127 = CLOSED_SHELL ( 'NONE', ( #80, #27, #44, #151, #136 ) ) ;
#128 = DATE_AND_TIME ( #198, #76 ) ;
#129 = DATE_TIME_ROLE ( 'creation_date' ) ;
#130 = CC_DESIGN_APPROVAL ( #70, ( #162 ) ) ;
#131 = APPROVAL_STATUS ( 'not_yet_approved' ) ;
#132 = ORIENTED_EDGE ( 'NONE', *, *, #188, .T. ) ;
#133 = ADVANCED_BREP_SHAPE_REPRESENTATION ( '964112', ( #168, #165, #186 ), #71 ) ;
#134 = CC_DESIGN_APPROVAL ( #55, ( #96 ) ) ;
#135 = EDGE_LOOP ( 'NONE', ( #183 ) ) ;
#136 = ADVANCED_FACE ( 'NONE', ( #51 ), #139, .F. ) ;
#137 = EDGE_LOOP ( 'NONE', ( #99 ) ) ;
#138 = DIRECTION ( 'NONE',  ( 3.491481338843133355E-15, -1.227517819005651059E-16, 1.000000000000000000 ) ) ;
#139 = PLANE ( 'NONE',  #164 ) ;
#140 = CARTESIAN_POINT ( 'NONE',  ( 2.793185071074506053E-14, -9.820142552045206497E-16, 7.999999999999998224 ) ) ;
#141 = AXIS2_PLACEMENT_3D ( 'NONE', #20, #120, #184 ) ;
#142 = DIRECTION ( 'NONE',  ( -4.275831445896958607E-31, -1.000000000000000000, -1.224646799147353207E-16 ) ) ;
#143 = FACE_OUTER_BOUND ( 'NONE', #167, .T. ) ;
#144 = COORDINATED_UNIVERSAL_TIME_OFFSET ( 1, 0, .AHEAD. ) ;
#145 = APPLICATION_PROTOCOL_DEFINITION ( 'international standard', 'config_control_design', 1994, #77 ) ;
#146 = EDGE_CURVE ( 'NONE', #68, #68, #216, .T. ) ;
#147 = APPROVAL_DATE_TIME ( #128, #55 ) ;
#148 = LOCAL_TIME ( 16, 44, 57.00000000000000000, #46 ) ;
#149 = AXIS2_PLACEMENT_3D ( 'NONE', #154, #72, #36 ) ;
#150 = COORDINATED_UNIVERSAL_TIME_OFFSET ( 1, 0, .AHEAD. ) ;
#151 = ADVANCED_FACE ( 'NONE', ( #105, #143 ), #191, .F. ) ;
#152 = ORIENTED_EDGE ( 'NONE', *, *, #197, .T. ) ;
#153 = APPROVAL_STATUS ( 'not_yet_approved' ) ;
#154 = CARTESIAN_POINT ( 'NONE',  ( 0.0000000000000000000, 0.0000000000000000000, 0.0000000000000000000 ) ) ;
#155 = FACE_OUTER_BOUND ( 'NONE', #61, .T. ) ;
#156 = DIRECTION ( 'NONE',  ( -4.285855558155653280E-31, -1.000000000000000000, -1.227517819005651059E-16 ) ) ;
#157 = FACE_OUTER_BOUND ( 'NONE', #137, .T. ) ;
#158 = EDGE_CURVE ( 'NONE', #34, #34, #43, .T. ) ;
#159 = DIRECTION ( 'NONE',  ( 3.491481338843133355E-15, -1.224646799147353207E-16, 1.000000000000000000 ) ) ;
#160 = APPROVAL_STATUS ( 'not_yet_approved' ) ;
#161 = APPROVAL ( #160, 'UNSPECIFIED' ) ;
#162 = SECURITY_CLASSIFICATION ( '', '', #179 ) ;
#163 =( LENGTH_UNIT ( ) NAMED_UNIT ( * ) SI_UNIT ( .MILLI., .METRE. ) );
#164 = AXIS2_PLACEMENT_3D ( 'NONE', #187, #38, #205 ) ;
#165 = MANIFOLD_SOLID_BREP ( 'Corps-Déplacer/Copier1[2]', #97 ) ;
#166 = APPROVAL_ROLE ( '' ) ;
#167 = EDGE_LOOP ( 'NONE', ( #132 ) ) ;
#168 = MANIFOLD_SOLID_BREP ( 'Corps-Déplacer/Copier1[1]', #127 ) ;
#169 = AXIS2_PLACEMENT_3D ( 'NONE', #204, #123, #49 ) ;
#170 = DIRECTION ( 'NONE',  ( 0.0000000000000000000, -1.000000000000000000, 0.0000000000000000000 ) ) ;
#171 = EDGE_LOOP ( 'NONE', ( #60 ) ) ;
#172 = DIRECTION ( 'NONE',  ( 3.491481338843133355E-15, -1.227517819005651059E-16, 1.000000000000000000 ) ) ;
#173 = CARTESIAN_POINT ( 'NONE',  ( 2.793185071074506684E-14, 1.124819836996382532E-32, 8.000000000000000000 ) ) ;
#174 = DIRECTION ( 'NONE',  ( 0.0000000000000000000, 1.000000000000000000, 0.0000000000000000000 ) ) ;
#175 = CIRCLE ( 'NONE', #78, 0.9999999999999985567 ) ;
#176 = CYLINDRICAL_SURFACE ( 'NONE', #192, 0.9999999999999986677 ) ;
#177 = CARTESIAN_POINT ( 'NONE',  ( -1.498545828515669280E-30, -0.9999999999999988898, -4.292005836732317014E-16 ) ) ;
#178 = PERSON_AND_ORGANIZATION ( #29, #86 ) ;
#179 = SECURITY_CLASSIFICATION_LEVEL ( 'unclassified' ) ;
#180 = CARTESIAN_POINT ( 'NONE',  ( 0.0000000000000000000, 0.0000000000000000000, 0.0000000000000000000 ) ) ;
#181 = EDGE_LOOP ( 'NONE', ( #85 ) ) ;
#182 = APPROVAL_DATE_TIME ( #13, #70 ) ;
#183 = ORIENTED_EDGE ( 'NONE', *, *, #112, .F. ) ;
#184 = DIRECTION ( 'NONE',  ( 0.0000000000000000000, 1.000000000000000000, 0.0000000000000000000 ) ) ;
#185 = DIRECTION ( 'NONE',  ( -4.285855558155652404E-31, -1.000000000000000000, -1.227517819005651552E-16 ) ) ;
#186 = AXIS2_PLACEMENT_3D ( 'NONE', #180, #7, #25 ) ;
#187 = CARTESIAN_POINT ( 'NONE',  ( 2.793185071074506684E-14, 1.124819836996382532E-32, 8.000000000000000000 ) ) ;
#188 = EDGE_CURVE ( 'NONE', #74, #74, #3, .T. ) ;
#189 = DIRECTION ( 'NONE',  ( -3.491481338843133355E-15, 1.224646799147353207E-16, -1.000000000000000000 ) ) ;
#190 = CYLINDRICAL_SURFACE ( 'NONE', #149, 1.499999999999990230 ) ;
#191 = TOROIDAL_SURFACE ( 'NONE', #10, 9.000000000000000000, 8.000000000000000000 ) ;
#192 = AXIS2_PLACEMENT_3D ( 'NONE', #21, #124, #156 ) ;
#193 = APPROVAL_ROLE ( '' ) ;
#194 = PRODUCT_DEFINITION_SHAPE ( 'NONE', 'NONE',  #96 ) ;
#195 = PERSON_AND_ORGANIZATION_ROLE ( 'creator' ) ;
#196 = APPROVAL_PERSON_ORGANIZATION ( #126, #161, #193 ) ;
#197 = EDGE_CURVE ( 'NONE', #114, #114, #50, .T. ) ;
#198 = CALENDAR_DATE ( 2021, 16, 11 ) ;
#199 = DATE_TIME_ROLE ( 'classification_date' ) ;
#200 = EDGE_LOOP ( 'NONE', ( #202 ) ) ;
#201 = SHAPE_DEFINITION_REPRESENTATION ( #194, #133 ) ;
#202 = ORIENTED_EDGE ( 'NONE', *, *, #158, .F. ) ;
#203 = FACE_BOUND ( 'NONE', #215, .T. ) ;
#204 = CARTESIAN_POINT ( 'NONE',  ( 1.316288464743860707E-13, -4.616918432785519503E-15, 37.69999999999998153 ) ) ;
#205 = DIRECTION ( 'NONE',  ( -4.275831445896958607E-31, -1.000000000000000000, -1.224646799147353207E-16 ) ) ;
#206 = CARTESIAN_POINT ( 'NONE',  ( 1.326762908760390170E-13, 1.199999999999987521, 37.99999999999999289 ) ) ;
#207 = APPROVAL_PERSON_ORGANIZATION ( #117, #70, #166 ) ;
#208 = CARTESIAN_POINT ( 'NONE',  ( 1.326762908760390170E-13, -4.653657836759941152E-15, 37.99999999999999289 ) ) ;
#209 = DIRECTION ( 'NONE',  ( 3.491481338843133355E-15, -1.227517819005651059E-16, 1.000000000000000000 ) ) ;
#210 = PERSON_AND_ORGANIZATION_ROLE ( 'creator' ) ;
#211 = COORDINATED_UNIVERSAL_TIME_OFFSET ( 1, 0, .AHEAD. ) ;
#212 = AXIS2_PLACEMENT_3D ( 'NONE', #219, #15, #170 ) ;
#213 = PERSON_AND_ORGANIZATION_ROLE ( 'design_owner' ) ;
#214 = CC_DESIGN_PERSON_AND_ORGANIZATION_ASSIGNMENT ( #178, #195, ( #32 ) ) ;
#215 = EDGE_LOOP ( 'NONE', ( #28 ) ) ;
#216 = CIRCLE ( 'NONE', #62, 1.199999999999992184 ) ;
#217 = EDGE_LOOP ( 'NONE', ( #116 ) ) ;
#218 = CALENDAR_DATE ( 2021, 16, 11 ) ;
#219 = CARTESIAN_POINT ( 'NONE',  ( 2.793185071074506053E-14, -9.820142552045206497E-16, 7.999999999999998224 ) ) ;
#220 = APPROVAL_PERSON_ORGANIZATION ( #5, #55, #75 ) ;
#221 = FACE_OUTER_BOUND ( 'NONE', #79, .T. ) ;
#222 = AXIS2_PLACEMENT_3D ( 'NONE', #119, #4, #22 ) ;
#223 = CARTESIAN_POINT ( 'NONE',  ( 1.326762908760390170E-13, 8.998558695971017012E-33, 37.99999999999999289 ) ) ;
ENDSEC;
END-ISO-10303-21;
